Song name
# A B C D E F G H I J K L M N O P Q R S T U V W X Y Z

Misc Traditional - Heart And Soul tab

-------------------------------------------------------------------------------
                              Heart And Soul by Hoagy Carmichael and Frank Loesser
-------------------------------------------------------------------------------
Tabbed by: Hence My Name
E-mail:

From the movie Big with Tom Hanks.First tab, hope you like it!

Tuning: Standard

Guitar 1: Repeats throughout the whole song.
e|--------------------------------------------------|
B|--------------------------------------------------|
G|--------------------------------------------------|
D|------2-2---------------3-3-----------------------|
A|--3-3----------3-3--5-5--------2-2----------------|
E|-----------5-5--------------3-3-------------------|

Guitar 2:

Verse: Repeat as necessary.
e|-------------------------------------------------5-------------------------------|
B|----------------------5-5-5---5-------5-6-8--------8-6-5-------------------------|
G|--5-5-5---5-4--4-5-7-----------7-5-7---------5----------7-5--4------------2-4----|
D|--------------7------------------------------------------------7-5-3--3-5--------|
A|---------------------------------------------------------------------------------|
E|---------------------------------------------------------------------------------|

e|---------------------0-0-0---0-------0-1-3------5-3-1-0-----------------------------|
B|--1-1-1---1-0--0-1-3-----------3-1-3-------1------------3-1--0---------------0------|
G|--------------2-------------------------------------------------2---0-----0-2-------|
D|-----------------------------------------------------------------------3-3----------|
A|------------------------------------------------------------------------------------|
E|------------------------------------------------------------------------------------|

Outro:
e|--------------------------|
B|--------------------------|
G|--------------------------|
D|--------------------------|
A|--3---2-0---------0-2-3---|
E|-----------3-1--3---------|

Optional: Strum C, Am, F(not the bar chord), and G chord progression along with the song.
Tap to rate this tab
# A B C D E F G H I J K L M N O P Q R S T U V W X Y Z