Song name
# A B C D E F G H I J K L M N O P Q R S T U V W X Y Z

Misc Traditional - Auferstanden Aus Ruinen tab

Nationalhymne der Deutschen Demokratischen Republik
tabbed by: Beatles55

e|----------------------------------------0----------------------------------|
B|0--0--------1--1--0-----3--0-----3--3-----1----0--0--------1--1--0-----3--0|
G|------2--0-----------2--------0----------------------2--0-----------2----- |
D|---------------------------------------------------------------------------|
A|---------------------------------------------------------------------------|
E|---------------------------------------------------------------------------|

e|0--------------------------------------------------------------------------|
B|---1-----------------------------0-----------------------0------0--0-------|
G|------2-----0------0---------0-----2-------0---------0-----2----------2--0-|
D|----------4----------4-2---4----------0------4-2---4-----------------------|
A|---------------------------------------------------------------------------|
E|---------------------------------------------------------------------------|

e|----------------------------0----------------------------------------------|
B|1--1--0-----3--0-----3--3-----1------0---------3----------0----------------|
G|---------2--------0--------------0-2------2---------0--2-------2----0------|
D|---------------------------------------------------------------------------|
A|---------------------------------------------------------------------------|
E|---------------------------------------------------------------------------|
Tap to rate this tab
# A B C D E F G H I J K L M N O P Q R S T U V W X Y Z