Song name
# A B C D E F G H I J K L M N O P Q R S T U V W X Y Z

Misc Traditional - Hej Sokoly tab

Guitar tab for "Hej sokoly"- Polish folk song
Tabbed by Henrique Pegacha a.k.a Osga21

Slightly based on the tabs posted here:
www.poloniamusic.com/FolkMusicHejsokoly.html#anchor_114

This is a simplified version, made with an electric
guitar in mind


Legend:
(/) Slide Up
(\) Slide Down
(h) Hammer On
(p) Pull Off
(b) Bend
(r) Release
(v) Vibrato


                 *Play in standard E tuning*

Verse:

  A                      E             Dm
E|--------------0--0--------------------1--1--0-----|
B|-----1-----1--------3--1--0--3--0--3-----------3--|
G|--2-----2-----------------------------------------|
D|--------------------------------------------------|
A|--------------------------------------------------|
E|--------------------------------------------------|



  A                      E                    Am  G Am G
E|--------------0--0--------0--0h1p0--------------------|
B|-----1-----1--------3--1------------3--1--0-----------|
G|--2-----2------------------------------------2-----2--|
D|------------------------------------------------------|
A|------------------------------------------------------|
E|------------------------------------------------0-----|


Chorus:

  C                 G
E|--0--0--3--3--1--0--3--3--3--3--3--5--3-------------|
B|-----------------------------------------6--5--5p3--|
G|----------------------------------------------------|
D|----------------------------------------------------|
A|----------------------------------------------------|
E|----------------------------------------------------|


  Am                     E                  Am

E|-----1-----1--0--0--------0--0h1p0--------------------|
B|--2-----2-----------3--1------------3--1--0-----------|
G|---------------------------------------------2-----2--|
D|------------------------------------------------------|
A|------------------------------------------------------|
E|------------------------------------------------0-----|
Tap to rate this tab
# A B C D E F G H I J K L M N O P Q R S T U V W X Y Z