Song name
# A B C D E F G H I J K L M N O P Q R S T U V W X Y Z

Misc Traditional - When Johnny Comes Marching Home tab

When Johnny Comes Marching Home
Song from the Civil War (Confederacy)

Tabbed by Superdawgyy77 (email- freedoggy77@gmail.com)


e-------------------------|
B-------------------------|
G-------------------------|
D-------------------------|
A--0-0-0-0-2-3-2-3-0------|
E-0-----------------3-0-3-|


e----------------------|
B----------------------|
G----------------------|
D----------------0-2-2-|
A-0-0-0-0-2-3-2-3---3--|
E--0-------------------|

e-----------------------------|
B-----------------------------|
G-----------------------------|
D--2-2-2--0---0-0-------------|
A-3------3-2-2---3-3-3-0-2----|
E-------------------------3-3-|

e-------------------|
B-------------------|
G-------------------|
D--0-2-0------------|
A-3-----3-2-0-0-0-0-|
E----------0-----3--|
Tap to rate this tab
 
# A B C D E F G H I J K L M N O P Q R S T U V W X Y Z