Song name
# A B C D E F G H I J K L M N O P Q R S T U V W X Y Z

Misc Traditional - Shell Be Coming Around The Mountain tab

------------------------------------------------------------------------
        She'll Be Coming Around The Mountain - Misc Traditional
------------------------------------------------------------------------
Tabbed by: Aaron
E-mail: Hamsteri69@yahoo.com

Tuning:

e|-------------------------------------------------------------------|
B|-------------------------------------------------------------------|
G|------------0---0---0---0-----------------------0------------------|
D|---0---2--------------------2---0---------0------------------------|
A|-------------------------------------2-----------------------------|
E|-------------------------------------------------------------------|

e|-------------------------------------------------------------------|
B|----------------0---0---0---0---3---0--------------------3---1-----|
G|---0---0---2----------------------------2---0---2----2-------------|
D|-------------------------------------------------------------------|
A|-------------------------------------------------------------------|
E|-------------------------------------------------------------------|

e|-------------------------------------------------------------------|
B|---0---0---0---0---------------------------------------------------|
G|--------------------2---0---0---0-------------------2---0----------|
D|------------------------------------2---2---2---2-----------4---2--|
A|-------------------------------------------------------------------|
E|-------------------------------------------------------------------|

e|-------------------------------------------------------------------|
B|-------------------------------------------------------------------|
G|-------------------0-----------------------------------------------|
D|-----------0---2-------2-------------------------------------------|
A|---0---0-------------------2---4---0-----------------0-------------|
E|-------------------------------------------------------------------|
Tap to rate this tab
# A B C D E F G H I J K L M N O P Q R S T U V W X Y Z