Song name
# A B C D E F G H I J K L M N O P Q R S T U V W X Y Z

Misc Traditional - Greensleeves tab

Greensleeves
original arrangement
by Hrothgar
tabbed 13 Oct 2013


    Am         Am                  C                    G                    G
E|--------||---------------------|--0--------1--0-----|--------------------|--------------------|--
B|--------||---1-----------3-----|--------1-----------|--3-----------0-----|-----------------0--|--
G|--2-----||o-------(2)----------|-----0-----0-----0--|--------0-----------|--0-----------2-----|--
D|-----2--||o-----2-----2-----2--|--------2-----2-----|-----0-----0-----0--|-----0-----0--------|--
A|--------||---0-----0-----0-----|--3-----------------|--------2-----2-----|--------2-----------|--
E|--0-----||---------------------|--------------------|--3-----------------|--3-----------------|--


               Am                  Am     E     Am       E                    E           Am
           E|--------------------|--------------------|--------------------|--------------------|--
           B|--1-----------------|--------------------|--0-----------------|--------------------|--
           G|--------------2-----|--2-----1-----2-----|--------------1-----|--------------2-----|--
           D|-----2-----2-----2--|-----2-----2-----2--|-----2-----2--------|--2--------------2--|--
           A|--0-----0-----------|--0-----------0-----|--------2-----2--2--|-----2-----2--------|--
           E|--------------0-----|--------0-----------|--0-----------------|--0-----0-----0-----|--

               Am                   C                    G                    G
           E|--------------------|--0--------1--0-----|--------------------|--------------------|--
           B|--1-----------3-----|--------1-----------|--3-----------0-----|--------------0-----|--
           G|-------(2)----------|-----0-----0-----0--|--------0-----------|--0-----2-----------|--
           D|-----2-----2-----2--|--------2-----2-----|-----0-----0-----0--|-----0-----0-----0--|--
           A|--0-----0-----0-----|--3-----------------|--------2-----2-----|--------2-----2-----|--
           E|--------------------|--------------------|--3-----------------|--3-----------------|--


               Am                   E     Esus2          Am                   Am          C
           E|--------------------|--------------------|--------0-----------|--------------------|--
           B|--1-----0-----------|--------------------|--------------1-----|--------------1-----|--
           G|--------------2-----|--1-----------1-----|--2-----------------|--2--------------0--|--
           D|-----2-----2-----2--|--------4--------2--|-----2--------------|--------1-----------|--
           A|--0-----------0-----|-----2-----2--------|--0--------0-----0--|-----0-----0--------|--
           E|--------0-----------|--0-----0-----0-----|--------------------|--------------------|--


               C                   C                    G                    G
           E|--3----------(3)----|--3--------1--0-----|--------------------|--------------------|--
           B|--------1-----1-----|--------1-----------|--3-----------0-----|-----------------0--|--
           G|-----0-----0-----0--|-----0-----0-----0--|--------0-----------|--0-----------2-----|--
           D|--------2-----2-----|--------2-----2-----|-----0-----0-----0--|-----0-----0--------|--
           A|--3-----------------|--3-----------------|--------2-----2-----|--------2-----------|--
           E|--------------------|--------------------|--3-----------------|--3-----------------|--


               Am                  Am     E     Am       E                    E           C
           E|--------------------|--------------------|--------------------|--------------------|--
           B|--1-----------------|--------------------|--0-----------------|--------------0-----|--
           G|--------------2-----|--2-----1-----2-----|--------------1-----|-----------------0--|--
           D|-----2-----2-----2--|-----2-----2-----2--|-----2-----2--------|--2-----------------|--
           A|--0-----0-----------|--0-----------0-----|--------2-----2--2--|-----2-----2--------|--
           E|--------------0-----|--------0-----------|--0-----------------|--0-----0-----------|--

               C                   C                     G                    G
           E|--3----------(3)----|--3--------1--0-----|--------------------|--------------------|--
           B|--------1-----1-----|--------1-----------|--3-----------0-----|--------------0-----|--
           G|-----0-----0-----0--|-----0-----0-----0--|--------0-----------|--0-----2-----------|--
           D|--------2-----2-----|--------2-----2-----|-----0-----0-----0--|-----0-----0-----0--|--
           A|--3-----------------|--3-----------------|--------2-----2-----|--------2-----2-----|--
           E|--------------------|--------------------|--3-----------------|--3-----------------|--


               Am                  Am     E     Am       E                    E           Am
           E|--------------------|--------------------|--------0-----------|---------------------||
           B|--1-----0-----------|--------------------|--------------1-----|---------------------||
           G|--------------2-----|--1-----------1-----|--2-----------------|--2-----------2-----o||
           D|-----2-----2-----2--|--------4--------2--|-----2--------------|--------1--------2--o||
           A|--0-----------0-----|-----2-----2--------|--0--------0-----0--|-----0-----0---------||
           E|--------0-----------|--0-----0-----0-----|--------------------|---------------------||
Tap to rate this tab
# A B C D E F G H I J K L M N O P Q R S T U V W X Y Z