Song name
# A B C D E F G H I J K L M N O P Q R S T U V W X Y Z

Misc Traditional - Camptown Races tab

Camptown Races

This is an awesome song.
Here is the lead part and the chords too

   C             G
e|-------------------------|
B|-------------------------|
G|-0-0---0-2-0-------------|
D|-----2-------2--2-0--2-0-|
A|-------------------------|
E|-------------------------|

  C               G       C
e|---------------|----------------|
B|---------------|----------------|
G|-0-0---0-2-0---|----------------|
D|-----2-------2-|---0--2-3-2-0---|
A|---------------|-3------------3-|
E|---------------|----------------|

  C             F      C
e|-------------|-----------|
B|-----------1-|-----1-----|
G|---------0---|-2-2---2-0-|
D|-----0-2-----|-----------|
A|-3-3---------|-----------|
E|-------------|-----------|

  C               G       C
e|---------------|----------------|
B|---------------|----------------|
G|-0-0---0-2-0---|----------------|
D|-----2-------2-|---0--2-3-2-0---|
A|---------------|-3------------3-|
E|---------------|----------------|

Thats it, enjoy!


Tap to rate this tab
# A B C D E F G H I J K L M N O P Q R S T U V W X Y Z