Song name
# A B C D E F G H I J K L M N O P Q R S T U V W X Y Z

Misc Traditional - Yankee Doodle tab

e\\--------0---0---------0-----------0-1-0------------------------------------|
B\\--1-1-3---1---3-1-1-3---1-0-1-1-3-------3-1-0-----0-1-1--------------------|
G\\----------------------------------------------0-2--------------------------|
D\\---------------------------------------------------------------------------|
A\\---------------------------------------------------------------------------|
E\\---------------------------------------------------------------------------|

e\\------------------------------------------------------0----------|
B\\----0-------0-1----------------0------0-1-----1-0-3-1-1----------|
G\\--2---2-0-2-----0-2-0------0-2---2-0-2----2-0--------------------|
D\\----------------------3-2----------------------------------------|
A\\-----------------------------------------------------------------|
E\\-----------------------------------------------------------------|
Tap to rate this tab
# A B C D E F G H I J K L M N O P Q R S T U V W X Y Z