Song name
# A B C D E F G H I J K L M N O P Q R S T U V W X Y Z

Misc Traditional - Heeyanbo Fu N Araamu Numedhee Dhiyaee Maa tab

 HEEYANBO (Full name:   fu'n araamu numedhee dhiyaee maa)

One of muslim (islam) dhivehi songs. This is only the instrumental
part.

  (tabbed   by   Juraj ~ reverend_braun@email.com)

I think this is 100% right. I compared it with original version by
recording myself and listening carefully :-)   Have fun!

(Time)0:00                    0:07
e----------------------------|-------------------------------------|
h--8----8-----4-3------------|-------8--6-6--8-8-------------------|
g----8----7-------3-3^5------|--5-5----------------5-5--7^5-4------|
D----------------------------|-------------------------------------|
A----------------------------|-------------------------------------|
E----------------------------|-------------------------------------|


0:11                          0:17
e----------------------------|----------------------------------8--|
h-----3-6~---8^6-------------|-------8---11-10-11(11/8)---8-6-8----|
g--4-------------8^7--5-8~---|--8-10-------------------------------|
D----------------------------|-------------------------------------|
A----------------------------|-------------------------------------|
E----------------------------|-------------------------------------|


0:22                          0:28
e--11^10--8-7--7-7---5-7-7-8-|--8^6--6-6--6-6-------------------------|
h----------------------------|----------------6--6-6^8---6-6^8--6-6^8-|
g----------------------------|----------------------------------------|
D----------------------------|----------------------------------------|
A----------------------------|----------------------------------------|
E----------------------------|----------------------------------------|
                                                          (Total: 0:35)

Comments:
 ^ - hammer-on / pull-off (follow the numbers)
 / - slide down

Notes in () needn?t to be played / are almost inaudible.
Tap to rate this tab
 
# A B C D E F G H I J K L M N O P Q R S T U V W X Y Z