Song name
# A B C D E F G H I J K L M N O P Q R S T U V W X Y Z

Misc Traditional - Blues Tune tab

::::::::::::
:BLUES SONG:
::::::::::::
TABBED BY: JAMES JACKSON
TABBED ON:SEP 19TH 2001
E-MAIL:sniper_guy69@hotmail.com

This should be played relatively quick.


RIFF A:

E------0----------0---------0----------0-----------|
B---------0----------0---------0----------0--------|
G----4---------3----------2---------1--------------|
D--------------------------------------------------|
A--------------------------------------------------|
E--------------------------------------------------|


E----------------------------------------|
B--------------------0--------0----------|
G------------------------0---------------|
D---------------------------------0------|
A----0---0---1---2-----------------------|
E----------------------------------------|


RIFF B:

CHORDS:
E,E6,E7,E6 X4

A,A6,A7,A6 X4
REPEAT RIFF A AFTER THESE CHORDS THEN START CHORDS AGAIN.


2nd Guitar Solo:

Play this first part during the E chords

E-------9h12p9------------------------------------------------------|
B----------------9h12p9---------------------------------------------|
G---------------------------11----9---------------------------------|
D--------------------------------------11---9-----------------------|
A-------------------------------------------------11----9-----------|
E-----------------------------------------------------------12---9--|

Play this second part during the A Chords


E--5h8p5B---------------------------------------------|
B-----------5h8p5-------------------------------------|
G-------------------7---5-----------------------------|
D---------------------------7---5---------------------|
A-----------------------------------7---5-------------|
E--------------------------------------------8----5---|

This is a good tune to play when you're bored.
Tap to rate this tab
# A B C D E F G H I J K L M N O P Q R S T U V W X Y Z