Song name
# A B C D E F G H I J K L M N O P Q R S T U V W X Y Z

Misc Traditional - Swedish National Anthem tab

Tabbed by: Calle Kabo
Email: kabo@macnytt.com

My First Tab! :)


Tuning: Regular


E--------------------------------------------------------I
B--------------------------------------------------------I
G-4-4--0-0-0--2-4-4--2-0------2-2-----0-2---4--0---------I
D-------------------------4---------4-----4------2--0----I
A--------------------------------------------------------I
E--------------------------------------------------------I

E--------------------------------------------------------I
B--------------------------------------------------------I
G---0--0-2-----0-----------------0---0-2-4-0-5-4-2-0-----I
D-0--------4-4---2-0-2-4-0----0----4---------------------I
A--------------------------------------------------------I
E--------------------------------------------------------I

This one x2
E--------------------------------------------------------I
B--------------------------------------------------------I
G---0---0-2-4-0-5----4-2---0-----------------------------I
D-0---4--------------------------------------------------I
A--------------------------------------------------------I
E--------------------------------------------------------I
Tap to rate this tab
# A B C D E F G H I J K L M N O P Q R S T U V W X Y Z