Song name
# A B C D E F G H I J K L M N O P Q R S T U V W X Y Z

Misc Traditional - In The Sweet Bye And Bye tab

In The Sweet Bye and Bye

Tabed by: beachboy83_992000@yahoo.com

-----------------------------------------------------------------|
-----------------------------------------------------------------|
--0--2--4--2--0--2--0----------0--2--4--4--4--7--7--4--2---------|
-----------------------2--0--------------------------------------|
-----------------------------------------------------------------|
-----------------------------------------------------------------|


-----------------------------------------------------------------|
-----------------------------------------------------------------|
--0--2--4--2--0--2--0----------0--2--4--2--0--2--0-----0---------|
-----------------------2--0-------------------------2------------|
-----------------------------------------------------------------|
-----------------------------------------------------------------|


-----------------------------------------------------------------|
-----------------------------------------------------------------|
--4--4--5--7--7--7--7--4--2--------------------------------------|
-----------------------------------------------------------------|
-----------------------------------------------------------------|
-----------------------------------------------------------------|

you can probably figure the rest out from that any questions e-mail me
at beachboy83_992000@yahoo.com
Tap to rate this tab
 
# A B C D E F G H I J K L M N O P Q R S T U V W X Y Z