Song name
# A B C D E F G H I J K L M N O P Q R S T U V W X Y Z

Misc Traditional - Hatikva Israeli National Anthem tab

This is the Israeli National Anthem.
Those tabs are the Marty Friedman's version of the Israeli National Anthem 
"Hatikva" which played in Israel on his concert in Israel.

>>>>>> E Tuning <<<<<<


Part 1, play Twice

e|--------------------------------------------|
B|-----------------------------------15-------|
G|--7--9--10--12--14--14--15--14--15----14----|
D|--------------------------------------------|
A|--------------------------------------------|
E|--------------------------------------------|

e|-----------------------------------------|
B|-----------------------------------------|
G|--12--12--12--10--10--9--7--9-10--7------|
D|-----------------------------------------|
A|-----------------------------------------|
E|-----------------------------------------|

*When you start the second repeat, you got to start with 2 note string 3 and then 7 9 10 12 .......



-Chorus-

First Part of Chorus, play Twice

e|----------------------------------------|
B|--3--15--15---15---13-15--13-11-10------|
G|----------------------------------------|
D|----------------------------------------|
A|----------------------------------------|
E|----------------------------------------|

Second part

e|----------------------------------------|
B|--13--13--13----------------------------|
G|--------------10--10--------------------|
D|----------------------------------------|
A|----------------------------------------|
E|----------------------------------------|

e|----------------------------------------|
B|----------------------------------------|
G|--12--14--15--17--14--12--10------------|
D|----------------------------------------|
A|----------------------------------------|
E|----------------------------------------|

e|----------------------------------------|
B|----------------------------------------|
G|--12--12--12--10--10--9--7--9-10--7-----|
D|----------------------------------------|
A|----------------------------------------|
E|----------------------------------------|

e|----------------------------------------|
B|----------------------------------------|
G|--7--9--10---x---12--12--12--10--10-----|
D|----------------------------------------|
A|----------------------------------------|
E|----------------------------------------|

e|----------------------------------------|
B|----------------------------------------|
G|--12--14--15-17--14--12--10-------------|
D|----------------------------------------|
A|----------------------------------------|
E|----------------------------------------|

e|----------------------------------------|
B|----------------------------------------|
G|--12--12--12--10--10--9--7--9-10--7-----|
D|----------------------------------------|
A|----------------------------------------|
E|----------------------------------------|


Lyrics:

Kol od ba-levav penima
Nefesh Yehudi homiya

Ulfa'atey mizrach kadima
Ayinle Le'tsion tsofiya

Od lo avda tikvatenu
HATIKVA bat shnot alpa'im
Lihiyot am chofshi be'artsenu
Erets tsion ve Yerushalaim

Lihiyot am chofshi be'artsenu
Erets tsion ve Yerushalaim



Editing by BotNix,
Shalom from Israel!
Tap to rate this tab
 
# A B C D E F G H I J K L M N O P Q R S T U V W X Y Z