Song name
# A B C D E F G H I J K L M N O P Q R S T U V W X Y Z

Misc Traditional - John Ryans tab

Help us improve GuitareTab! Take a short survey!
----------------------------------------------------------------------------                      
John Ryans - misc. traditional
----------------------------------------------------------------------------

Tabbed by:Eric s.
Email:emilbus000@yahoo.com

Tuning:EADGBe

e|---------------------------------------|-------------------0h2---0-------|
B|-3-3-0-3------------3-3-0-3------------|-3-3-0-3---------3-----3---2-3-3-|
G|---------4p2---2-------------4p2-------|---------4p2---2-----------------|
D|-------------4---4---------------4-2-0-|-------------4-------------------|
A|---------------------------------------|---------------------------------|
E|---------------------------------------|---------------------------------|

repeat

e|-2-----0h2h3-2-0---0h2-------|-2---5p3p2-----0h2h3-2-0---0h2---0------|
B|---3-3-----------3-----3---3-|---3-------3-3-----------3-----3---2-3-3|
G|-------------------------2---|----------------------------------------|
D|-----------------------------|----------------------------------------|
A|-----------------------------|----------------------------------------|
E|-----------------------------|----------------------------------------|

repeat
Related for John Ryans tab