Song name
# A B C D E F G H I J K L M N O P Q R S T U V W X Y Z

Misc Traditional - Irish Washer Woman tab

----------------------------------------------------------------------------
                      Irish Washer Woman-misc. traditional
----------------------------------------------------------------------------

Tabbed by: Eric S.
Email: emilbus000@yahoo.com

Tuning: EADGBe
       G                       Am
e|-----------------------------------------------0-----|
B|-3---0-----------0---0-3p1-0-1-----------1---1---3p1-|
G|---5---0-0---0-0---0-----------2-2---2-2---2---------|
D|-----------0-----------0----------2------------0-----|
A|-----------------------------0-----------0-----------|
E|-----3-----------3----------------0------------------|

  G                        Am    D     G 
e|--------------------------------------------|
B|-0-----------0---0-3p1-0-1p0-1---3p1-0------|
G|---0-0---0-0---0---------------2-------0-0--|
D|-------0-----------0-----------0------------|
A|-------------------------0------------------|
E|-3-----------3-----------------------3---3--|

repreat all
Tap to rate this tab
# A B C D E F G H I J K L M N O P Q R S T U V W X Y Z