Song name
# A B C D E F G H I J K L M N O P Q R S T U V W X Y Z

Misc Traditional - Malambo tab

Help us improve GuitareTab! Take a short survey!
-----------------------------------------------------------------------------
	Malambo (Traditional song of Argentina) - Misc traditional
-----------------------------------------------------------------------------

Tabbed by: Ignacio "Coco" Vespoli
Email: cocofuhgawz@hotmail.com

Tuning: Normal


e|--0--|--2--|--3--|--x--|
B|--1--|--1--|--0--|--x--|
G|--0--|--2--|--0--|--x--|
D|--2--|--0--|--0--|-----|
A|--3--|-----|--2--|-----|
E|-----|-----|--3--|-----|


x - Mute note (This is not a common mute, its a little bit different, you've got to hit
the string with your hand)


Thats it, these are the chords, just play it a lot.

If you have any problem or suggestion, just send me an e-mail
Ante cualquier duda o sugerencia, solo envienme un e-mail
Related for Malambo tab