Guitaretab - guitar tabs
Song name
# A B C D E F G H I J K L M N O P Q R S T U V W X Y Z

Misc Traditional - Du Gammla Du Fria tab

Du gammla du fria

E-2-2-------------------------|
B-----3-3-3-5-7-7-5-3-2-------|
G-----------------------------|
D-----------------------------|
A-----------------------------|
E-----------------------------|
[ Tab from: http://www.guitaretab.com/m/misc-traditional/57600.html ]
E-----------------------------|
B-3-5-2-3-5-2-7-3-------------|
G-----------------4-2---------|
D-----------------------------|
A-----------------------------|
E-----------------------------|
                               
E-----------------------------|
B-----------------------------|
G-6-7-7-9-6-6-7-4-2-4-6-2-----|
D-----------------------------|
A-----------------------------|
E-----------------------------|

E-----------------------------|
B---------5-7-3-8-7-5-3-------|
G-2-7-6-7---------------------|Play This Twice
D-----------------------------|
A-----------------------------|
E-----------------------------|


Tabed by Sonny Lundin 
mail: Taragon@gamers.nu
Related for Du Gammla Du Fria tab
×
Du Gammla Du Fria