Song name
# A B C D E F G H I J K L M N O P Q R S T U V W X Y Z

Misc Traditional - Philippine National Anthem tab

Tabbed by:justine0393
             justine_aquino93@yahoo.com

[Standard tuning]

ito yung other version ko ng lupang hinirang...

e|---------------------------| e|-------------------------|
A|---------------------------| A|-------------------------|
D|---------------------------| D|-------------------------|
G|---5-4-7-5---7-9-10-9-7-9-5| G|---5-4-7-5---7-9-10-9-7-5|  2x all..
B|-----------5---------------| B|-----------5-------------|
E|---------------------------| E|-------------------------|



e|--------------------------------------|
A|--------------------------------------|
D|--------------------------------------|
G|---5-4-5-7-7-----7-7-----9-10-12-14-12|----
B|-------------5-5-----5-5--------------|    |
E|--------------------------------------|    |
                                             |  2x all..
e|--------------------------------------|    |
A|--------------------------------------|    |
D|--------------------------------------|    |
G|---5-4-5-7-7-----7-7-----7-9-10-9-7-5-|----
B|-------------5-5-----5-5--------------|
E|--------------------------------------|



e|--------------------------------------------------|
A|--------------------------------------------------|
D|--------------------------------------------------|
G|---5-4-5-7-7-9-9--11-9-7-9-11--11-9-7-9-6-9-6-6/7~|
B|--------------------------------------------------|
E|--------------------------------------------------|

e|---------------------------------------------------------|
A|---------------------------------------------------------|
D|---------------------------------------------------------|
G|---7-6-7-9-9-11-11--13-11-9-11-13--13-11-9-11-8-11-8-8/9~|
B|---------------------------------------------------------|
E|---------------------------------------------------------|

[END]
Tap to rate this tab
 
# A B C D E F G H I J K L M N O P Q R S T U V W X Y Z