Song name
# A B C D E F G H I J K L M N O P Q R S T U V W X Y Z

Misc Traditional - Road To Lisnavarnagh tab

-------------------------------------------------------------------------------
			     The road to lisnavarnagh - misc traditional (irish)
-------------------------------------------------------------------------------
Tabbed by:ferris
Email:

Tuning:standard

                           *=Tremola
e|-------------------------------------------------------------------|
B|-------------------------------------------------------------------|
G|-------------4-5-------------5--0-------------4-5----------5--0----|
D|----7-7-5-7------7-5------------------7-7-5-7-----7-5--------------|
A|-5--------------------7-*7----7-----5-----------------7-*7--7------|
E|-------------------------------------------------------------------|

e|-------------------------------------------------------------------|
B|-------------------------------------------------------------------|
G|-----------4-5------------5--0--------------4-4h5p4----------------|
D|---7-7-5-7-----7-5-----------------7-7-5-7------------7-5-4--------|
A|-5------------------7-*7---7-----5--------------------------5-5----|
E|-------------------------------------------------------------------|

e|--------------------------------------------------------------------|
B|-----5-5h7---------------------------5-5h7--------------------------|
G|--7---------5-------4-------5------7-------5-------4----------------|
D|--------------7-*7----5-*5----7-7------------7-*7----5-7-5-4--------|
A|-------------------------------------------------------------5-5----|
E|--------------------------------------------------------------------|

repeat again and again 'til the notes lose all meaning
Tap to rate this tab
# A B C D E F G H I J K L M N O P Q R S T U V W X Y Z