Song name
# A B C D E F G H I J K L M N O P Q R S T U V W X Y Z

Misc Traditional - Armenian National Anthem tab

			  Armenian National Anthem - Barsegh Kanachyan
-------------------------------------------------------------------------------
Tabbed by:Hayaser  (www.Hayaser.net)
Email:sarboy@gmail.com

Tuning:EADGBe

e|-------------------------------------------------------------------------|
B|-------------------------------------------------------------------------|
G|---7----5--4---0---------7----5--4---0-----------------------------------|
D|-------------------------------------------------------------------------|
A|-------------------------------------------------------------------------|
E|-------------------------------------------------------------------------|
   Mer  Hayrenik          Azad Angakh   
e|-------------------------------------------------------------------------|
B|-------------------------------------------------------------------------|
G|--9---11--12---14/12---11--9--7-------9----11--12--14----7---5-4--0------|
D|-------------------------------------------------------------------------|
A|-------------------------------------------------------------------------|
E|-------------------------------------------------------------------------|
   vor   abrele       tar eh tar        Ir vor tika    art ganchoom eh 
e|-------------------------------------------------------------------------|
B|-------------------------------------------------------------------------|
G|--2----4--5---7/5--4--5--7-----------9----11-12--14---7--5-4---0---------|
D|-------------------------------------------------------------------------|
A|-------------------------------------------------------------------------|
E|-------------------------------------------------------------------------|
   Azad, angakh  haiasdan             Ir vor tika   art ganchoom eh 
e|-------------------------------------------------------------------------|
B|-------------------------------------------------------------------------|
G|-2----4--5---7/5--4--2--0------------------------------------------------|
D|-------------------------------------------------------------------------|
A|-------------------------------------------------------------------------|
E|-------------------------------------------------------------------------|
   Azad, angakh  haiasdan.



| /  slide up
| \  slide down
| h  hammer-on
| p  pull-off
| ~  vibrato
| +  harmonic
| x  Mute note
===============================================================================
Tap to rate this tab
# A B C D E F G H I J K L M N O P Q R S T U V W X Y Z