Song name
# A B C D E F G H I J K L M N O P Q R S T U V W X Y Z

Misc Traditional - Australian Ntional Anthem tab

Just hold the Chord Shapes and play the Melody off the shapes


INTRO
   F              G             C      G       C
|--1---0------------------------0-----------------|
|--1-------3--1---0---------1---1--1---3---0---1--|
|--2--------------0---2--0------0------0-------0--|
|-----------------0--------------------0-------2--|
|----------------------------------------------3--|
|-------------------------------------------------|




Main Part
     C                              G     c                  D          G
|---------------------0---------------|------------------0-----------------|
|---1-------------------3--1--0--1--3-|---1------------------3--1--0-------|
|-0-0--0------0--0--0---------------0-|-0-0-0-----0--0--0----2--------2--0-|
|---2-----2---2---------------------0-|---2---2---2----------0-----------0-|
|-----------3-------------------------|---------3------------------------2-|
|-------------------------------------|------------------------------------|

     F        C	        F          G     F       C                G    C  
|----------------------------1--0------|--------------------0------------0-|
|------0-1----------------1--------3---|---0-1------1--1--3-1--1--3-0--1---|
|-0--2---2-2--0------0--2----------4-0-|-2---2-2-0----------0-----0----0---|
|----3---3----2-2--2----3----------5---|-3---3---2----------------0----2---|
|-------------3------------------------|---------3-------------------------|
|--------------------------------------|-----------------------------------|


   F              G             C      G       C
|--1---0------------------------0-----------------|
|--1-------3--1---0---------1---1--1---3---0---1--|
|--2--------------0---2--0------0------0-------0--|
|-----------------0--------------------0-------2--|
|----------------------------------------------3--|
|-------------------------------------------------|


Then just repeat without intro for 2nd verse

any questions send to  matt001_is_@hotmail.com





Tap to rate this tab
 
# A B C D E F G H I J K L M N O P Q R S T U V W X Y Z