Song name
# A B C D E F G H I J K L M N O P Q R S T U V W X Y Z

Misc Traditional - My Country Tis Of Thee tab

-------------------------------------------------------------------------------
	My Country Tis of Thee - Misc. Traditional
-------------------------------------------------------------------------------
Tabbed by: Andres (silvadolla)
Email: andres.ali@gmail.com

Tuning: EADGBE (standard)

This is the whole song, it repeats. Only play the C chord at the end
when you finish the song

e|-----------------------------------|
B|-1-1-3-0-1-3-5-5-6-5-3-1-3-1-0-1-8-|
G|-----------------------------------|
D|-----------------------------------|
A|-----------------------------------|
E|-----------------------------------|

                                                            C
e|------------------------------------0-1-3---5-1-0---------0-----------------|
B|--8-8-8p6p5-6-6-6-6p5p3--5-6-5-3-1------------------3-1---1-----------------|
G|----------------------------------------------------------0-----------------|
D|----------------------------------------------------------2-----------------|
A|----------------------------------------------------------3-----------------|
E|----------------------------------------------------------------------------|


I didn't see any tabs for this on UG, so I tabbed it out. It sounds perfectly fine. 
me if you think something else would sound better though.
Tap to rate this tab
# A B C D E F G H I J K L M N O P Q R S T U V W X Y Z