Song name
# A B C D E F G H I J K L M N O P Q R S T U V W X Y Z

Misc Traditional - My Hat It Has Three Corners tab

----------------------------------------------------------------------------
			     My Hat It Has Three Corners - Misc
----------------------------------------------------------------------------
Tabbed by: Tyler MacDonell
Email: tylermishere@hotmail.com

#----------------------------------PLEASE NOTE-----------------------------#
#This file is the author's own work and represents their interpretation of #
#the song. You may only use this file for private study, scholarship, or   #
#research.                                                                 #
#--------------------------------------------------------------------------#

Tuning: Standard

e|---------------------------------------------------------|
B|---------------------------------------------------------|
G|-----------------------------------------5---------------|
D|---5--5-3--2-3-0----0-3--5-7--5-2----5-5---5--3--2-3-0---|
A|-3-------------------------------------------------------|
E|---------------------------------------------------------|


|----------------------------------------------------------|
|----------------------------------------------------------|
|----------------------------------------------------------|
|-0-3--5-7--5----------------------------------------------|
|-------------3--------------------------------------------|
|----------------------------------------------------------|

possibly the greatest song ever written
Tap to rate this tab
# A B C D E F G H I J K L M N O P Q R S T U V W X Y Z