Song name
# A B C D E F G H I J K L M N O P Q R S T U V W X Y Z

Misc Traditional - Norwegian National Anthem tab

This is my first tab. It's the Norwegian national anthem, "Ja Vi Elsker". I think it's 
close to perfect, and very easy to play. Enjoy!

|------------------------------------------------------------------------|
|--------5-3-2-0---0-2-3-5-7-5-3-2---7-5-3-2-0-2-3-5-5-7-7-9-10----------|
|----------------2-------------------------------------------------------|
|------------------------------------------------------------------------|
|------------------------------------------------------------------------|
|------------------------------------------------------------------------|

|------------------------------------------------------------------------|
|------10-10-9-9-7-7-5-2--7-7-5-5-3--5-5-5-7-7-9-9-10--10-10-9-10-12-----|
|------------------------------------------------------------------------|
|------------------------------------------------------------------------|
|------------------------------------------------------------------------|
|------------------------------------------------------------------------|

|------------------------------------------------------------------------|
|-----12-12-12-14-15-14-12-10-9-7-5-7-7-9-10-----------------------------|
|------------------------------------------------------------------------|
|------------------------------------------------------------------------|
|------------------------------------------------------------------------|
|------------------------------------------------------------------------|
Tap to rate this tab
 
# A B C D E F G H I J K L M N O P Q R S T U V W X Y Z