Song name
# A B C D E F G H I J K L M N O P Q R S T U V W X Y Z

Misc Traditional - Step It Up And Go tab

			     Step It Up And Go

Tabbed by:  oiled shot
Email:  oiledshot@yahoo.com

Tuning:  EADGBe

the verses of this song are played in chords which are played using the bluegrass style 
 these chords are also played behind the solo:

    G     C     D
e|---3-----0-----2-|
B|---0-----1-----3-|
G|---0-----0-----2-|
D|---0-----2---0-0-|
A|---2---3-3-----X-|
E|-3-3-----X-----X-|

e|--------------------------------------------------------------------------|
B|--------------------------------------------------------------------------|
G|----------------------------------------0-2-3-2-0-------------------------|
D|-----0-2-3-2-0---------0-2-3-2-0------2-----------2------0-2-3-2-0--------|
A|---2-----------2-----2-----------2--3------------------2-----------2------|
E|-3-----------------3---------------------------------3--------------------|

e|--------------------------------------------------------------------------|
B|--------------------------------------------------------------------------|
G|----------------------------------------------0-2-3-2-0-------------------|
D|-0-0-2-0---------------5-------------5-------2---------2----0-2-3-2-0-----|
A|--------3-2-0-------5-7-7-5-------5-7-7-5---3--------------2---------2----|
E|-------------3---3-7-------7---3-7-------7----------------3---------------|

e|--------------------------------------------------------------------------|
B|--------------------------------------------------------------------------|
G|------------------------------------------------------------12-14-15-12---|
D|-0-0-2-0--------------12-14-15-12--------12-14-15-12------14-----------14-|
A|--------3-2-0-------14-----------14----14-----------14--15----------------|
E|-------------3--3/15-----------------15-----------------------------------|

e|--------------------------------------------------------------------------|
B|--------------------------------------------------------------------------|
G|--------------------------------------------------------------------------|
D|--12-12-14-12-------------------------------------------------------------|
A|-------------15-14-12-----------------------------------------------------|
E|---------------------15---------------------------------------------------|


| /  slide up
| \  slide down
| h  hammer-on
| p  pull-off
| ~  vibrato
| +  harmonic
| x  Mute note
===============================================================================
Tap to rate this tab
 
# A B C D E F G H I J K L M N O P Q R S T U V W X Y Z