Song name
# A B C D E F G H I J K L M N O P Q R S T U V W X Y Z

Misc Traditional - Soviet Union National Anthem tab

		 C	       Em	     F             C
E|-------------|-------------|-------------|-------------|-------------|
B|-------------|-1-----------|-0-----------|-------------|-------------|
G|----------0--|-------0---2-|-------------|-2-----0-----|-0-----------|
D|-------------|-------------|-------2--2--|-----------3-|-------------|
A|-------------|-------------|-------------|-------------|-------3--3--|
E|-------------|-------------|-------------|-------------|-------------|

   Dm		 D/C			     G
E|-------------|-------------|-------------|-------------|
B|-------------|-------------|-------0--1--|-3-----------|
G|-------------|----------0--|-2-----------|----------0--|
D|-0-----0--2--|-3-----3-----|-------------|-------------|
A|-------------|-------------|-------------|-------------|
E|-------------|-------------|-------------|-------------|

   C		 G	       Am	     Em	
E|-0-----------|-------------|-------------|-------------|
B|-------3---1-|-3-----0-----|-1-----0-----|-0-----------|
G|-------------|----------0--|-----------2-|-------------|
D|-------------|-------------|-------------|-------2--2--|
A|-------------|-------------|-------------|-------------|
E|-------------|-------------|-------------|-------------|

   F  		 C 	       D7	     G
E|-------------|-------------|-------------|-------------|
B|-------------|-------------|-1-----0-----|-------------|
G|-2-----0-----|-0-----------|-----------2-|-0-----------|
D|----------3--|-------------|-------------|-------------|
A|-------------|-------3--3--|-------------|-------------|
E|-------------|-------------|-------------|-------------|


   C		 G
E|-0-----------|-------------|-------------|-------------|
B|-------------|-3--1--0--1--|-3-----0-----|-------------|
G|-------------|-------------|----------0--|-0-----------|
D|-------------|-------------|-------------|-------------|
A|-------------|-------------|-------------|-------------|
E|-------------|-------------|-------------|-------------|

   Am		 Em
E|-------------|-------------|-------------|-------------|
B|-1-----------|-0-----------|-0-----------|-------------|
G|-------------|----2--0--2--|-------------|-------------|
D|-------------|-------------|----------2--|-2-----------|
A|-------------|-------------|-------------|-------------|
E|-------------|-------------|-------------|-------------|

   F
E|-------------|-------------|-------------|-1-----------|
B|-1---------0-|-1---------0-|-1--------1--|-------------|
G|-------2-----|-------2-----|-------2-----|-------------|
D|-------------|-------------|-------------|-------------|
A|-------------|-------------|-------------|-------------|
E|-------------|-------------|-------------|-------------|

   Dm            G	       C
E|-1-----------|-0-----------|-0-----------|-------------|
B|-------------|----3--1--3--|----------1--|-1-----------|
G|-------------|-------------|-------------|-------------|
D|-------------|-------------|-------------|-------------|
A|-------------|-------------|-------------|-------------|
E|-------------|-------------|-------------|-------------|

  Dm		 E	       Am
E|-------------|-------------|-------------|-------------|
B|-3-----------|-1--0-----0--|-1-----------|-------------|
G|-------------|-------2-----|----------2--|-2-----------|
D|-------------|-------------|-------------|-------------|
A|-------------|-------------|-------------|-------------|
E|-------------|-------------|-------------|-------------|

   F             C             D7            G
E|-------------|-------------|-------------|-------------|
B|-1-----0-----|-------------|-1-----0-----|-------------|
G|----------2--|-0-----------|----------2--|-0--------0--|
D|-------------|-------------|-------------|-------------|
A|-------------|-------3---3-|-------------|-------------|
E|-------------|-------------|-------------|-------------|


	Repeat three times. For the third time,
	instead of last four measures, play these:

   F             C             G                           C
E|-------------|-------------|-------------|-------------|-------------|
B|-1-----0-----|-------------|-------------|-------0-----|-1-----------|
G|----------2--|-0-----------|-0-----------|-2-----------|-------------|
D|-------------|-------------|-------------|-------------|-------------|
A|-------------|-------3---3-|-------------|-------------|-------------|
E|-------------|-------------|-------------|-------------|-------------|
Tap to rate this tab
 
# A B C D E F G H I J K L M N O P Q R S T U V W X Y Z