Song name
# A B C D E F G H I J K L M N O P Q R S T U V W X Y Z

Misc Traditional - Circus Tune Entrance Of The Gladiators tab

Help us improve GuitareTab! Take a short survey!
|9-----------9-9-9-----------9-9-|9-8-7---6-------------------------|
|--------------------------------|----------10-9---8-7--------------|
|6-----------6-6-6-----------6-6-|---------------------10---9-8-6---|
|--------------------------------|----------------------------------|
|--------------------------------|----------------------------------|
|9-----------9-9-9-----------9-9-|----------------------------------|

|11-----------11-11-11-----------11-11-|
|--------------------------------------|
|-8------------8--8--8------------8--8-|
|--------------------------------------|
|--------------------------------------|
|11-----------11-11-11-----------11-11-|

|11-10-9---8-----------------------------|
|------------12-11---10-9----------------|
|-------------------------12---11-10-8---|
|----------------------------------------|
|----------------------------------------|
|----------------------------------------|

|12-----------12-12-12-----------12-12-|
|--------------------------------------|
|-9------------9--9--9------------9--9-|
|--------------------------------------|
|--------------------------------------|
|12-----------12-12-12-----------12-12-|

|--------------------------8---9-10-12---|
|-------------9-10---11-12---------------|
|9-10-11---12----------------------------|
|----------------------------------------|
|----------------------------------------|
|----------------------------------------|


MAIN TUNE STARTS HERE:



||-13---12---11-12-11-10-|9---8-------8---|10---9---8-9-8----|
||o----------------------|-------12-------|---------------12-|
||-----------------------|----------------|------------------|
||-----------------------|----------------|------------------|
||o-8--------------------|8---------------|-8----------------|
||------------8----------|--------8-------|---------8--------|

|-------------------|8----------------|8----------------|
|11---10---9---10---|----8-8------8---|----8-8------8---|
|-------------------|--------11-------|--------11-------|
|-------------------|-----------------|-----------------|
|-8-----------------|--------10-------|--------10-------|
|----------8--------|8----------------|8----------------|

|----------7-8-9-10-|10----10-12-10----------||
|8-9-10-11----------|---13-------------13---o||
|-------------------|------------------------||
|-------------------|------------------------||
|-------------------|-----------------------o||
|-------------------|------------------------||

Related for Circus Tune Entrance Of The Gladiators tab