Guitaretab - guitar tabs
Song name
# A B C D E F G H I J K L M N O P Q R S T U V W X Y Z

Misc Traditional - Stille Nacht Silent Night tab


Hello,

I tried to tab the christmas song Silent Night. Im going to play it this jear christmas 
the church at the 24th(On E-Guitar of course^^).

I think, the tabs are mostly correct. If you find a mistake, please send me an
email at s.slomski@web.de

Have a nice rocky Christmas!

PS: Please check out my homepage: www.sebastian-slomski.de.vu


Verse

e ------------------------------------------------------------|
B ----------------------3-3-0-1-1--------------1-0------------|
G -0-2-0------0-2-0----------------0-------2-2-----2-0-2-0----|
D -------2~--------2~---------------------------------------2-|
A ------------------------------------------------------------|
E ------------------------------------------------------------|


e -----------------------1-------0------------------------|
B -----1-0-----------3-3---3-0-1--------1-----------------|
G -2-2----2-0-2-0-------------------------0---0-----------|
D -----------------2------------------------2---3-0-------|
A ---------------------------------------------------3----|
E --------------------------------------------------------|

Solo

[ Tab from: http://www.guitaretab.com/m/misc-traditional/99616.html ]
e -------------------------------------------------------------|
B --------------------------------------14-14-h11-12-12--------|
G -11-h13-p11--------11-h13-p11-------------------------11~----|
D ------------13~---------------13~----------------------------|
A -------------------------------------------------------------|
E -------------------------------------------------------------|


e -------------------------------------------------------------------------|
B ---------12-p11------------------------------12-p11----------------------|
G ---13-13--------13-p11-h13-p11--------13-13--------13-p11-h13-p11--------|
D -------------------------------13~--------------------------------13~----|
A -------------------------------------------------------------------------|
E -------------------------------------------------------------------------|


e -------12~------------11~---------------------------|
B -14-14-----14-p11-h12-------12----------------------|
G -------------------------------11----11-------------|
D ----------------------------------13----14-11-------|
A ----------------------------------------------14~---|
E ----------------------------------------------------|
Related for Stille Nacht Silent Night tab