Song name
# A B C D E F G H I J K L M N O P Q R S T U V W X Y Z

Misc Traditional - Pjdem Spolu Do Betlma tab

Ahoj!

This is a traditional Czech Christmas song.

2/4 time (atleast that's the way I tabbed it, I think it's accurate), EADGBe tuning

|-----------------|-----------------|-----------------|-----------------|
|-----------------|-----------------|-0-1-3-1---1-3-1-|-0-1-3-1---1-----|
|-----------------|-2---2-----------|-2-------4-------|-2-------4-------|
|-3---3-----------|---------3---3---|-----------------|-----------------|
|-0-------3---3---|-3---------------|-----------------|-----------------|
|-----------------|-----------------|-----------------|-----------------|

|-----------------|-----------------|-----------------|-----------------|
|-------3---------|-------1---------|-----------------|-----------------|
|-4---4---0-------|-2---2-----------|-----------------|-----2-------2---|
|-5-------2-------|-3-------3-------|-5---5---3-2-0---|-0---3---0---3---|
|-----------------|---------3-------|-2---2---2-----3-|-3-------3-------|
|-----------------|-----------------|-----------------|-----------------|

|-----------------|-----------------|-----------------|-----------------|
|-----------------|-----------------|-----------------|-----------------|
|-------3---------|-------1---------|-5---5---3-2-0---|-----2-----------|
|-4---4---0-------|-2---2---3-------|-2---2---2-----3-|-3-------3-------|
|-0-------2-------|-3--------3------|-----------------|-0---3---0-------|
|-----------------|-----------------|-----------------|-----------------|

Lyrics:

P?jdem spolu do Betléma,
dujdaj, dujdaj, dujdajdá.
Ježíšku, paná?ku,
já t? budu kolíbati,
Ježíšku, paná?ku,
já t? budu kolíbat.

Za?ni Kubo na ty dudy,
dujdaj, dujdaj, dujdajdá.
Ježíšku, paná?ku,
já t? budu kolíbati,
Ježíšku, paná?ku,
já t? budu kolíbat.

A ty, Janku, na píš?alku,
dudli, tudli, dudlidá.
Ježíšku, paná?ku,
já t? budu kolíbati,
Ježíšku, paná?ku,
já t? budu kolíbat.

A ty, Mikši, na housli?ky,
hudli, tydli, hudlidá.
Ježíšku, paná?ku,
já t? budu kolíbati,
Ježíšku, paná?ku,
já t? budu kolíbat.

A ty, Vávro, na tu basu,
rum, rum, rum, rum, rumrumdá.
Ježíšku, paná?ku,
já t? budu kolíbati,
Ježíšku, paná?ku,
já t? budu kolíbat.


Well that's it, just repeat the tabs for each verse. So if you're enteraining Czech
this Christmas, or you're trying to impress a Czech foreign exchange student with a well
out Christmas present, or you need extra credit in your Czech class because you're 
in Slavic Studies, or whatever your situation, then I hope that this is a bit of a help.
if you have a friend with these same problems who plays bass, I'll be posting bass tabs 
Merry Christmas. Enjoy!
Tap to rate this tab
# A B C D E F G H I J K L M N O P Q R S T U V W X Y Z