Song name
# A B C D E F G H I J K L M N O P Q R S T U V W X Y Z

Misc Unsigned Band - Davis Truong - Dont You Know tab

-------------------------------------------------------------------------------
Tabbed by:Davis Truong
Myspace:

Tuning:Standard 

Capo:2nd Fret

Intro: Finger Pick and Strumming
e|------5-5---5-5-----5-5----5-5------5-5----5-5-----5-5---5-5-|
B|------3-----3-------3------3--------3------3-------3-----3---|
G|---4--4---4-5-----4-4---4--4--------4---4--4-------4---4-4---|
D|-5----5-----5---5---5------5------4--------4-----4-------4---|
A|--------------------------------5--------------5-------------|
E|-------------------------------------------------------------|

e|-------3--3---3--3-----3--0h2----2--2-------2--2----2-3-----|
B|-------1------1--------1---------1--------1-1----1--1-2-----|
G|----0--0----0-0------0-0------0--0----0h2---2-------2-------|
D|0h2----2------2----2---2---------2--------------------------|
A|------------------------------------------------------------|
E|------------------------------------------------------------|

Chorus
e|-x--x--x--x--x--
B|-3--3--3--3--3--
G|-0--0--0--0--0--
D|-0--x--2--0--x--
A|-x--3--2--x--3--
E|-3--x--x--3--x--

e|-x--x--x--x--x--x--x--x
B|-3--3--3--3--3--3--3--3
G|-0--0--0--0--0--0--0--0
D|-0--x--2--0--x--2--0--0
A|-x--3--2--x--3--2--x--3
E|-3--x--x--3--x--x--3--x

Breakdown
e|-x--x--x--x-----------------------------------------------------|
B|-3--3--3--3-----------------------------------------------------|
G|-0--2--0--0-----------------------------------------------------|
D|-2--0--0--x-----------------------------------------------------|
A|-2--x--x--3-----------------------------------------------------|
E|-x--x--3--x-----------------------------------------------------|

End Chorus/Picking then Strum
e|-x--x--x--x--x--x--x--x
B|-3--3--3--3--3--3--3--3
G|-0--0--0--0--0--0--0--0
D|-0--x--2--0--x--2--0--0
A|-x--3--2--x--3--2--x--3
E|-3--x--x--3--x--x--3--x

| h  hammer-on

===============================================================================
Tap to rate this tab
 
# A B C D E F G H I J K L M N O P Q R S T U V W X Y Z