Song name
# A B C D E F G H I J K L M N O P Q R S T U V W X Y Z

Misc Unsigned Band - Alan Marchese - Imulsion tab

e:--------------------------------------|-----------------------------------|
B:--------------------------------------|-----------------------------------|
G:--5-7-7\10/9~~------------------------|-9-------7-------5------5/10\9~~---|
D:--------------9-7\5~-----------2~3~~~-|-9-9-7-9-7-7-5-7-5-3-3-5---------9-|
A:--------------------3-5/7~5\2~~-------|-7-------5-------3-----------------|
E:--------------------------------------|-----------------------------------|

e:--------------------------------------------------------------------------|
B:--------------------------------------------------------------------------|
G:-----------------------9--------------------------------------------------|
D:-7\5~-----------2~3~~~-9--------------------------------------------------|
A:-----3-5/7~5\2~~-------7--------------------------------------------------|
E:-----------------------0--------------------------------------------------|

I hope you like my tab. This is just a song i made when i got bored. It's
not finished yet, and ill probably have it up on youtube soon if you feel
like getting the timing down. You can contact me at  alanmarchese94@hotmail.com
Tap to rate this tab
 
# A B C D E F G H I J K L M N O P Q R S T U V W X Y Z