Guitaretab - guitar tabs
Song name
# A B C D E F G H I J K L M N O P Q R S T U V W X Y Z

Misc Unsigned Bands - Geluidsterroris - Imagine tab

You should play power chords, and I tabbed out the solo, so it should be
playable. It's a song I wrote myself, and because there is no version on internet
or where ever, you can play the song as you want to.  I hope you enjoy it,

grtz,
Geluidsterrorist




Imagine Ė Hugo Nauta

G                                        F                 C                          G
You were the backing track of my music and the music of my daily life.
G                            F              C                    G
You were my inspiration to live the way I do right now.
G                          F                               C                   G
I canít imagine a minute without your picture in my head.
G  F     C                    G
But I understand.


G                        F                           C                    G
I look up to the sky and watch the stars, far away.
G                F                            C                       G
I can only watch it, until the clouds come and blind me
G                      F			    C		G
I wish I could follow the rainbow and walk to the sun. 
G  F     C             G
The hot sun.


D		  C		G
I canít find any water in the sea.
D               C                                         G
Is it gone, am I blinded, or did I just imagine there was water in the sea.
D			C		     G
Probably Iím waking up to realize the world looks different form my imagination.
D-C#-C-G
   Imagine.


G                    F          C                                        G
Watch the amount of sand in the desert, and no water to be found.
G                                    F              C     		 G
It used to be a sea, so I had to struggle against the huge amount of water.
G                                          F       C                              G
As soon as itís gone you realize that you need anything, but not too much.
G  F	C	 G
Iím thirsty.

[ Tab from: http://www.guitaretab.com/m/misc-unsigned-bands/100001.html ]
D		  C		G
I canít find any water in the sea.
D               C                                         G
Is it gone, am I blinded, or did I just imagine there was water in the sea.
D			C		     G
Probably Iím waking up to realize the world looks different form my imagination.
D-C#-C-G
   Imagine.

Guitar solo.

E|-3-3-3---3-3-3---------------------------------------------|
B|-3-----6p3-------3-----------------------------------------|
G|---------------5^--5^-3-------3-5p3-------3-5p3------------|
D|------------------------5-3h5-------5-3h5-------5----------|
A|-----------------------------------------------------------|
E|-----------------------------------------------------------|

E|-----------------------------------------------------------|
B|----3------------------------------------------------------|
G|-5^---5^-3-5---------------5p3---3-------------------------|
D|-----------------------3h5-----5---5-3-5-------------------|
A|-------------------3h5-------------------------------------|
E|-------------3-3h6-----------------------------------------|

E|-----------------------------------------------------------|
B|------------------3----------------------------------------|
G|---------------5^---5^---------------5p3---3---------------|
D|-----------3h5-------------------3h5-----5---5-3-5---------|
A|-------3h5-------------------3h5---------------------------|
E|-3-3h6-----------------3-3h6-------------------------------|

E|-----------------------------------------------------------|
B|-----------------------------------------------------------|
G|-----------------------------------------------------------|
D|-5-5-3-5-3-------------------------------------------------|
A|-----------5-3---------------------------------------------|
E|---------------6-3-----------------------------------------|



D		  C		G
I canít find any water in the sea.
D               C                                         G
Is it gone, am I blinded, or did I just imagine there was water in the sea.
D			C		     G
Probably Iím waking up to realize the world looks different form my imagination.
D-C#-C-G
   Imagine.
Related for Geluidsterroris - Imagine tab