Song name
# A B C D E F G H I J K L M N O P Q R S T U V W X Y Z

Misc Unsigned Bands - Chastisesd - Song 5 tab

What up im Clucifer(Brew Crew). I tabbed out Informal Gluttony by BTBAM. This is a tab 
my band Chastise. I needed to use this site to tab out my song. Please Keep this private 
confidential. I made this for my other guitarist Andrew. Enjoy homie

~Song 5~

Tablature Legend
----------------
 h   - hammer-on
 p   - pull-off
 b   - bend
 pb  - pre-bend
 r   - bend release (if no number after the r, then release immediately)
 /\  - slide into or out of (from/to "nowhere")
 s   - legato slide
 S   - shift slide
 *   - natural harmonic
[n]  - artificial harmonic
n(n) - tapped harmonic
 ~   - vibrato
 tr  - trill
 T   - tap
 TP  - trem. picking
 PM  - palm muting
\n/  - tremolo bar dip; n = amount to dip
 \n  - tremolo bar down
 n/  - tremolo bar up
/n\  - tremolo bar inverted dip
 =   - hold bend; also acts as connecting device for hammers/pulls
 <>  - volume swell (louder/softer)
 x   - on rhythm slash represents muted slash
 o   - on rhythm slash represents single note slash

Misc Legend
-----------
 |  - bar
||  - double bar
||o - repeat start
o|| - repeat end
*|  - double bar (ending)
 :  - bar (freetime)
 $  - Segno
 &  - Coda

                               -Intro-
                             (Guitar II)


                       |-------------------|
                       |-------------------|
                       |---------------6---|
                       |----9-10--7-6--x---|
                       |----x-x---x-x--4---|
                       |----9-10--7-6------|

                            -Riff A-


|-------------------------------------------------------------------|
|-------------------------------------------------------------------|
|-------------------------------------------------------------------|
|----------------------------------------8h11p8-----------5h8p5-----|
|------5--7--4-8-4-10-8-7---5--7-----7-10------10-7----4-7-----7-4--|
|----00-00-00-0-0-0-------00-00--8-11---------------5-8-------------|
    PM


|---------------------------------------------------------|
|---------------------------------------------------------|
|---------------------------------------------------------|
|---------------------------------------------------------|
|----00-5---7---4--8--4--10-8-7----5---7-----7------------|
|----00--000-000-00-00-00-------000-000--0078--0078-4*----|
     PM  PM  PM                 PM  PM   PM    PM


|----------------------------------------------------------------------|
|----------------------------------------------------------------------|
|----------------------------------------------------------------------|
|------------------------------------------------8h11p8----------5-8---|
|----00-5---7---4--8--4--10-8-7----5---7-----7-10------10-7---4-7------|
|----00--000-000-00-00-00-------000-000--8-11--------------5-8---------|
     PM  PM  PM                 PM  PM


                            -Interlude-


             |-------------------------------------|
             |-------------------------------------|
             |-------------------------------------|
             |-------------------------------------|
             |----8888-0-------10--7777-8-7--------|
             |----5555--8-10-12----3333----8-7-5---|


                        -Riff B x2-

|-------------------------------------------------------------|
|-------------------------------------------------------------|
|--------------------15-15-15-14--14-14-14--------------------|
|-------------8*-----x--x--x--x---x--x--x---------------------|
|---0000-7--7---7*---13-13-13-12--12-12-12--------------------|
|---0000-5--5-------------------------------------------------|
    PM

|------------------------------------------------|
|------------------------------------------------|
|------------------------------------------------|
|------------------------------------------------|
|--0-8-7-8-5-8-4-7-5-7-5-4-----------------------|
|--0-8-7-8-5-8-4-7-5-7-5-4--1tr4-00-4h7----------|
   |--------PM-----------------------------------|


|-------------------------------------------------------------|
|-------------------------------------------------------------|
|---------------------15-15-15-14--14-14-14-------------------|
|--------------8*-----x--x--x--x---x--x--x--------------------|
|---0000-7--7----7*---13-13-13-12--12-12-12-------------------|
|---0000-5--5-------------------------------------------------|
    PM

    |-------Speed Picked----------------------------------------------|
|------------------------------------10p6-8p6-------------------------|
|--------------------------------------------10/13-11-10h11p10--------|
|-----------7777----99996666----10-9---------------------------12*----|
|-------7777----7777--------7777--------------------------------------|
|---5555--------------------------------------------------------------|
|---------------------------------------------------------------------|

                           -Interlude B-


|------------------------------------------------------------------|
|------------------------------------------------------------------|
|---14-11----11h12p11----------------------------------------------|
|---------13----------13-12-10-12-13-12-10h12p10----10-------------|
|------------------------------------------------13----13-12-10-9--|
|------------------------------------------------------------------|

|---------------------|
|---------------------|
|---------------------|
|---------------------|
|------------------9--|
|---12-11-8-7-8-11----|


                            -Riff C x2-


|-------------------------------------------------------------------|
|-------------------------------------------------------------------|
|-------------------------------------------------------------------|
|---------------------------------------------------------------4---|
|------------5---------6-----------3---3-6/10-9---------3---3-6-----|
|----4-7-8-7----10-8-7------00-1-4---4-----------00-1-4---4---------|
       PM         PM        PM                   PM


|---------------------------------------------------------------------|
|---------------------------------------------------------------------|
|--5*-----------------------------------------------------------------|
|----4*---------------------------------------------------------7-----|
|------6*-3----------5---------6-9h10p9-------------------------x-----|
|------------4-7-8-7----10-8-7----------13-12-10h12p10--8h10p8--7-----|
               PM         PM             PM

                              -Riff D-


|-----------------------------------------------------------------|
|-----------------------------------------------------------------|
|---9----9--9--9----9--12---12-12--10--10-10-10-------------------|
|---10---10-10-10---10-10---10-10--10--10-10-10--7777-7--7-8-7----|
|---8----8--8--8----8--8----8--8---8---8--8--8---5555-5--5-5-5----|
|---8----8--8--8----8--8----8--8---8---8--8--8---5555-5--5-5-5----|
                                                  PM


|----------------------------------------------------------------------|
|----------------------------------------------------------------------|
|---------0h2----------------------------------------------------------|
|-----3---------3---10---10-10-10---10-12---12-12-12---12-12-12-7------|
|-------------------8----8--8--8----8--8----8--8--8----8--8--8--8------|
|---3---3-----3-----7----7--7--7----7--7----7--7--7----7--7--7--7------|

|---------------------------------------------------------------------|
|---------------------------------------------------------------------|
|---10-10-10-10---10-10-9--9--9----9--9--9------9---9-9-9-9---9-9-9---|
|---7--7--7--7----7--7--7--7--7----7--7--7------7---7-7-7-7---7-7-7---|
|---8--8--8--8----8--8--8--8--8----8--8--8------7---7-7-7-7---7-7-7---|
|---7--7--7--7----7--7--7--7--7----7--7--7------7---7-7-7-7---7-7-7---|

|--------------5---5-----5-------------5-10---------------------|
|--------------5---5-----5-----------6--------------------------|
|--9-9-9-------5---5-----5---------7---------0\-----------------|
|--7-7-7-------5---5-----5-------7-----------7\----4-4----------|
|--7-7-7---7-7---7---7-7-----5-8-------------6\----4-4----0-0---|
|--7-7-7---7-7---7---7-7---7-----------------7\----4-4----1-1---|
           PM   PM   PM                                   PM

                        -Intro to Riff E-

|-------------------------------------------------------------------|
|-------------------------------------------------------------------|
|-------------------------------------------------------------------|
|-------------------------------------------------------------------|
|-----5------6-----5-------------------4-7-4-7/10-7-10/13-12-10-12--|
|-8-5---8-10---4-7---4-7-8-7-0-3-6-7-6------------------------------|


|---------------|
|---------------|
|---------------|
|-----15-14*\---|
|---------------|
|--11-----------|

                              -Riff E-

|--------------------------------------------|
|--------------------------------------------|
|--------------------------------------------|
|--------------------------------------------|
|--------------------------------------------|
|--3h6p3-2222-3h5p3-2222227777666633336666---|


|------------------------------------------------------|
|------------------------------------------------------|
|------------------------------------------------------|
|------------------------------------------------------|
|--------------------------------3-5-6-5-3-5p3---------|
|--3h6p3-2222-3h5p3-222222-2-3-6---------------9-6-5*--|


|--------------------------------------------|
|--------------------------------------------|
|--------------------------------------------|
|--------------------------------------------|
|--------------------------------------------|
|--3h6p3-2222-3h5p3-2222227777666633336666---|


|----------------------------------------------|
|----------------------------------------------|
|------------------------5-7-9-----------------|
|------------------6-7-9-------6---9/10-9------|
|--0-6-3-0-6-3-0-6---------------8-x/x--x------|
|--0-6-3-0-6-3-0-6-----------------9/10-9------|
   |-----PM------------------------------------|

                           -Breakdown 1st time-
                          (Palm Muted Everytime)


|--------------------------------------------------------------------|
|--------------------------------------------------------------------|
|--------------------------------------------------------------------|
|--------------------------------------------------------------------|
|---0000---000000--0333(332)22--222(222)222(333)3(330)00--000000-----|
|---0000---000000--0333(332)22--222(222)222(333)3(330)00--000000-----|


|----------------------------------------------|
|-------------------9\6-6-6\5-5-5-5------------|
|-------------------x\x-x-x\x-x-x-x------------|
|-------------------6\3-3-3\2-2-2-2------------|
|--0555(554)44--444----------------------------|
|--0333(332)22--222----------------------------|

                           -Breakdown 2nd time-


|--------------------------------------------------------------------|
|--------------------------------------------------------------------|
|--------------------------------------------------------------------|
|--------------------------------------------5*----------------------|
|---0000---000000--0333(332)22--222-4*(223)3---(333)3-0000---000000--|
|---0000---000000--0333(332)22--222---(223)3---(333)3-0000---000000--|

|----------------------------------------------|
|----------------------------------------------|
|----------------------------------------------|
|--------------6-3-2--6------------------------|
|--0555(554)44----------8-7-5------------------|
|--0333(332)22----------------7-6-3-0-6b---3b--|

                         -Breakdown 3rd time-

|-------------------------------------------------[5]-----------------|
|---------------------------------------------------[5]---------------|
|-----------------------------------------------------[7]-------------|
|-------------------------------------------------------[7]-----------|
|---0000---000000--0333(332)22--222(222)222(333)3---------[7]---00----|
|---0000---000000--0333(332)22--222(222)222(333)3-----------[7]-00----|


|----------------------------------------------------|
|-------------------------9\6-6-6\5-5-5-5------------|
|-------------------------x\x-x-x\x-x-x-x------------|
|-------------------------6\3-3-3\2-2-2-2------------|
|000000--0555(554)44--444----------------------------|
|000000--0333(332)22--222----------------------------|

                         -Breakdown 4th time-

|-------------------------------------------------------------------|
|-------------------------------------------------------------------|
|-------------------------------------------------------------------|
|-----------------------------6/7---------------------------6/7-6---|
|---000-----------------------x/x---------------------------x/x-x---|
|---000-0*--0-6-3-0-6-3-0-6-3-6/7--222232223222226222322222-6/7-6---|

|------------------------------------------------------------|
|---------------------------------9\6-6-6\5-5-5-5------------|
|---------------------------------x\x-x-x\x-x-x-x------------|
|---------------------------------6\3-3-3\2-2-2-2------------|
|--0000--000000--0555(554)44--444----------------------------|
|--0000--000000--0333(332)22--222----------------------------|

                           -Breakdown 5th time-


|--------------------------------------------------------------------|
|--------------------------------------------------------------------|
|--------------------------------------------------------------------|
|--------------------------------------------------------------------|
|---0000---000000--0333(332)22--222(222)222(333)3(330)00--000000-----|
|---0000---000000--0333(332)22--222(222)222(333)3(330)00--000000-----|

|----------------------------------------------|
|----------------------------------------------|
|----------------------------------------------|
|--------------6-3-2--6------------------------|
|--0555(554)44----------8-7-5------------------|
|--0333(332)22----------------7-6-3-0-6b---3b--|


                         -Back into Riff E-


|--------------------------------------------|
|--------------------------------------------|
|--------------------------------------------|
|--------------------------------------------|
|--------------------------------------------|
|--3h6p3-2222-3h5p3-2222227777666633336666---|


|------------------------------------------------------|
|------------------------------------------------------|
|------------------------------------------------------|
|------------------------------------------------------|
|--------------------------------3-5-6-5-3-5p3---------|
|--3h6p3-2222-3h5p3-222222-2-3-6---------------9-6-5*--|


|--------------------------------------------|
|--------------------------------------------|
|--------------------------------------------|
|--------------------------------------------|
|--------------------------------------------|
|--3h6p3-2222-3h5p3-2222227777666633336666---|


                             -Outro-

|-----------------------------------------------------------------------|
|-----------------------------------------------------------------------|
|-------------------9-----------9*\12------7*---------------------------|
|---------------------8---8---8-------3--6-------------7h8p7----3h5p3---|
|--77-7---7---4---4-----7---7---------2--5----2--5-5-4-------10-------4-|
|--55-6p5-6p5--3-2----------------------------3--6----------------------|
   PM                                 PM       PM


|--------------------------------------------------------|
|--------------------------------------------------------|
|--------------------------------------------------------|
|---6h9p6---9h12p9----6h9p6---9h12p9----12h15p12-16\-----|
|---------8--------11-------8--------11----------15\-----|
|--------------------------------------------------------|

|---------------------------------|
|---------------------------------|
|------------6--------------------|
|---6--2--6--x--------8\--3---2---|
|---5--1--5--4--5--6--7\--3---2---|
|---6--2--6-----6--7------3---2---|
    |--PM--|     PM


                                  ~THE END~

We might add another riff after this but you already know how to play it so I figured it 
be pointless to tab it out.
Tap to rate this tab
 
# A B C D E F G H I J K L M N O P Q R S T U V W X Y Z