Song name
# A B C D E F G H I J K L M N O P Q R S T U V W X Y Z

Misc Unsigned Bands - South Park Mexican - You Know My Name Remix tab

Artist: South Park Mexican (SPM)
Album: Time Is Money
Song: You Know My Name [remix]
Track: #12

This is a very simple tab for the intro of the song. It starts off like this...

e|----1---0---1p0-------1---0---1p0--------1---0---1p0---|
B|--3---3---3-----3---3---3---3-----3----3---3---3-----3-|
G|-------------------------------------------------------|
D|0------------------------------------------------------|
A|-------------------3-----------------0-----------------|
E|-------------------------------------------------------|

e|--1---1---1---1-|
B|----3-------3---|
G|----------------|
D|----------------|
A|1-------3-------|
E|----------------|

Repeat 2x in intro and chorus. Have fun ^_^

http://www.dopehouserecords.com/
Tap to rate this tab
# A B C D E F G H I J K L M N O P Q R S T U V W X Y Z