Song name
# A B C D E F G H I J K L M N O P Q R S T U V W X Y Z

Misc Unsigned Bands - The Hoojits - Card Shark tab

-----------------------------------------------------------------------------
			     Card Shark - THE HOOJITS
-----------------------------------------------------------------------------
Tabbed by: chris
Email: coluhopkins@hotmail.com

Tuning: EADGBe


Intro - Guitar 1
e|-5----7----5----8-----5----7---7-6-5--------------------------------------|
B|-5----9----5----9-----5----9---9-8-7--------------------------------------|
G|-6----9----6----10----6----9---9-8-7--------------------------------------|
D|-7----9----7----10----7----9---9-8-7--------------------------------------|
A|-7----7----7----8-----7----7---7-6-5--------------------------------------|
E|-5---------5----------5---------------------------------------------------|

Intro - Guitar 2
e|--------------------------------------------------------------------------|
B|--------------------------------------------------------------------------|
G|-----------------------------------------------|
D|--------------------------------------------(Probably fails)--------------|
A|--------------------------------------------------------------------------|
E|--------------------------------------------------------------------------|

Main Riff - Guitar 1
e|-5--------7--------5--------8----------------5--------7---6-5--63636363---|
B|-5--------9--------5--------9----------------5--------9---8-7-------------|
G|-6--------9--------6--------10---------------6--------9---8-7-------------|
D|-7--------9--------7--------10---------------7--------9---8-7-------------|
A|-7--------7--------7--------8----------------7--------7---6-5-------------|
E|-5-----------------5-------------------------5----------------------------|

e|-63635-7--8----------------12------13--13---------------------------------|
B|-----7-9--9----------------14------13--13---------------------------------|
G|-----7-9--10---------------14------13--13---------------------------------|
D|-----7-9--10---------------14------15--14---777777777/--------------------|
A|-----5-7--8----------------12------15--14---777777777/--------------------|
E|-----------------------------------13--12---555555555/--------------------|

Main Riff - Guitar 2
e|--------------------------------------------------------------------------|
B|--------------------------------------------------------------------------|
G|----------99999999----------1010101010101010----------99998877-55555555---|
D|-77777777-99999999-77777777-1010101010101010-77777777-99998877-55555555---|
A|-77777777-77777777-77777777-8-8-8-8-8-8-8-8--77777777-77776655-33333333---|
E|-55555555----------55555555------------------55555555---------------------|

e|--------------------------------------------------------------------------|
B|--------------------------------------------------------------------------|
G|-55557799-1010101010101010-14141414---------------------------------------|
D|-55557799-1010101010101010-1414141415151414-777777777/--------------------|
A|-33335577-8-8-8-8-8-8-8-8--1212121215151414-777777777/--------------------|
E|-----------------------------------13131212-555555555/--------------------|

Verse - Guitar 1
e|-5--------7--------5--------8----------------5--------7---6-5--55555555-5-|
B|-5--------9--------5--------9----------------5--------9---8-7--55555555-5-|
G|-6--------9--------6--------10---------------6--------9---8-7--55555555-5-|
D|-7--------9--------7--------10---------------7--------9---8-7--55555555-5-|
A|-7--------7--------7--------8----------------7--------7---6-5--33333333-3-|
E|-5-----------------5-------------------------5----------------------------|

Verse - Guitar 2
e|--------------------------------------------------------------------------|
B|--------------------------------------------------------------------------|
G|----------99999999----------1010101010101010----------99998877-55555555-5-|
D|-77777777-99999999-77777777-1010101010101010-77777777-99998877-55555555-5-|
A|-77777777-77777777-77777777-8-8-8-8-8-8-8-8--77777777-77776655-33333333-3-|
E|-55555555----------55555555------------------55555555---------------------|

Chorus - Guitar 1
e|--------------------------------------------------------------------------|
B|--------------------------------------------------------------------------|
G|--------------------------------------------------------------------------|
D|-17-17-17-17-17-17-17-17/19-19-19-19-19-19-19-19\12-12-12-12/14-14-14-14--|
A|-x--x--x--x--x--x--x--x-/x--x--x--x--x--x--x--x-\x--x--x--x-/x--x--x--x---|
E|-15-15-15-15-15-15-15-15/17-17-17-17-17-17-17-17\10-10-10-10/12-12-12-12--|

Chorus - Guitar 2
e|--------------------------------------------------------------------------|
B|--------------------------------------------------------------------------|
G|-------------------7777/9999----------------------------------------------|
D|-55555555/77777777-7777/9999------97--------------------------------------|
A|-55555555/77777777-5555/7777----------------------------------------------|
E|-33333333/55555555--------------------------------------------------------|

Main Riff - Guitar 1
e|-5--------7--------5--------8----------------5--------7---6-5--63636363---|
B|-5--------9--------5--------9----------------5--------9---8-7-------------|
G|-6--------9--------6--------10---------------6--------9---8-7-------------|
D|-7--------9--------7--------10---------------7--------9---8-7-------------|
A|-7--------7--------7--------8----------------7--------7---6-5-------------|
E|-5-----------------5-------------------------5----------------------------|

e|-63635-7--8----------------12------13--13---------------------------------|
B|-----7-9--9----------------14------13--13---------------------------------|
G|-----7-9--10---------------14------13--13---------------------------------|
D|-----7-9--10---------------14------15--14---777777777/--------------------|
A|-----5-7--8----------------12------15--14---777777777/--------------------|
E|-----------------------------------13--12---555555555/--------------------|

Main Riff - Guitar 2
e|--------------------------------------------------------------------------|
B|--------------------------------------------------------------------------|
G|----------99999999----------xx10xx101010----------99998877-55555555-------|
D|-77777777-99999999-77777777-xx10xx101010-77777777-99998877-55555555-------|
A|-77777777-77777777-77777777-xx8-xx8-8-8--77777777-77776655-33333333-------|
E|-55555555----------55555555--------------55555555-------------------------|

e|--------------------------------------------------------------------------|
B|--------------------------------------------------------------------------|
G|-55557799-1010101010101010-14141414---------------------------------------|
D|-55557799-1010101010101010-1414141415151414-777777777---------------------|
A|-33335577-8-8-8-8-8-8-8-8--1212121215151414-777777777---------------------|
E|-----------------------------------13131212-555555555---------------------|

Verse - Guitar 1
e|-5--------7--------5--------8----------------5--------7---6-5--55555555-5-|
B|-5--------9--------5--------9----------------5--------9---8-7--55555555-5-|
G|-6--------9--------6--------10---------------6--------9---8-7--55555555-5-|
D|-7--------9--------7--------10---------------7--------9---8-7--55555555-5-|
A|-7--------7--------7--------8----------------7--------7---6-5--33333333-3-|
E|-5-----------------5-------------------------5----------------------------|

Verse - Guitar 2
e|--------------------------------------------------------------------------|
B|--------------------------------------------------------------------------|
G|----------99999999----------1010101010101010----------99998877-55555555-5-|
D|-77777777-99999999-77777777-1010101010101010-77777777-99998877-55555555-5-|
A|-77777777-77777777-77777777-8-8-8-8-8-8-8-8--77777777-77776655-33333333-3-|
E|-55555555----------55555555------------------55555555---------------------|

Chorus - Guitar 1
e|--------------------------------------------------------------------------|
B|--------------------------------------------------------------------------|
G|--------------------------------------------------------------------------|
D|-17-17-17-17-17-17-17-17/19-19-19-19-19-19-19-19\12-12-12-12/14-14-14-14--|
A|-x--x--x--x--x--x--x--x-/x--x--x--x--x--x--x--x-\x--x--x--x-/x--x--x--x---|
E|-15-15-15-15-15-15-15-15/17-17-17-17-17-17-17-17\10-10-10-10/12-12-12-12--|

Chorus - Guitar 2
e|--------------------------------------------------------------------------|
B|--------------------------------------------------------------------------|
G|-------------------7777/9999----------------------------------------------|
D|-55555555/77777777-7777/9999------97--------------------------------------|
A|-55555555/77777777-5555/7777----------------------------------------------|
E|-33333333/55555555--------------------------------------------------------|

Main Riff - Guitar 1
e|-5--------7--------5--------8----------------5--------7---6-5--63636363---|
B|-5--------9--------5--------9----------------5--------9---8-7-------------|
G|-6--------9--------6--------10---------------6--------9---8-7-------------|
D|-7--------9--------7--------10---------------7--------9---8-7-------------|
A|-7--------7--------7--------8----------------7--------7---6-5-------------|
E|-5-----------------5-------------------------5----------------------------|

e|-63635-7--8----------------12------13--13---------------------------------|
B|-----7-9--9----------------14------13--13---------------------------------|
G|-----7-9--10---------------14------13--13---------------------------------|
D|-----7-9--10---------------14------15--14---777777777/--------------------|
A|-----5-7--8----------------12------15--14---777777777/--------------------|
E|-----------------------------------13--12---555555555/--------------------|


Main Riff - Guitar 2
e|--------------------------------------------------------------------------|
B|--------------------------------------------------------------------------|
G|----------xx9xx999----------xx10xx101010----------xx998877-55555555-------|
D|-77777777-xx9xx999-77777777-xx10xx101010-77777777-xx998877-55555555-------|
A|-77777777-xx7xx777-77777777-xx8-xx8-8-8--77777777-xx776655-33333333-------|
E|-55555555----------55555555--------------55555555-------------------------|

e|--------------------------------------------------------------------------|
B|--------------------------------------------------------------------------|
G|-55557799-1010101010101010-14141414---------------------------------------|
D|-55557799-1010101010101010-1414141415151414-777777777-7-------------------|
A|-33335577-8-8-8-8-8-8-8-8--1212121215151414-777777777--7------------------|
E|-----------------------------------13131212-555555555---5-----------------|

Bridge - Guitar 1
e|--------------------------------------------------------------------------|
B|--------------------------------------------------------------------------|
G|--------------------------------------------------------------------------|
D|-7-7-7-7-7-7-7-7/5-5-5-5-5-5-5-5/3-3-3-3-3-3-3-3--2-2-2-2-2222222---------|
A|-5-5-5-5-5-5-5-5/3-3-3-3-3-3-3-3/1-1-1-1-1-1-1-1--2-2-2-2-2222222---------|
E|-5-5-5-5-5-5-5-5/3-3-3-3-3-3-3-3/1-1-1-1-1-1-1-1--0-0-0-0-0000000---------|

Bridge - Guitar 2
e|--------------------------------------------------------------------------|
B|--------------------------------------------------------------------------|
G|--------------------------------------------------------------------------|
D|-7-7-7-7-7-7-7-7/5-5-5-5-5-5-5-5/3-3-3-3-3-3-3-3--2-2-2-2-2-2-2-2---------|
A|-x-x-x-x-x-x-x-x/x-x-x-x-x-x-x-x/x-x-x-x-x-x-x-x--2-2-2-2-2-2-2-2---------|
E|-5-5-5-5-5-5-5-5/3-3-3-3-3-3-3-3/1-1-1-1-1-1-1-1--0-0-0-0-0-0-0-0---------|

Solo - Guitar 1

e|--------------------------------------------------------------------------|
B|--------------------------------------------------------------------------|
G|--------------------------------------------------------------------------|
D|-7-7-7-7-7-7-7-7/5-5-5-5-5-5-5-5/3-3-3-3-3-3-3-3--2-2-2-2-2---------------|
A|-5-5-5-5-5-5-5-5/3-3-3-3-3-3-3-3/1-1-1-1-1-1-1-1--2-2-2-2-2---------------|
E|-5-5-5-5-5-5-5-5/3-3-3-3-3-3-3-3/1-1-1-1-1-1-1-1--0-0-0-0-0-(repeat until)|

e|-12~-10~-8~--7~--5--------------------------------------------------------|
B|-14~-12~-10~-9~--5--------------------------------------------------------|
G|-14~-12~-10~-9~--6--------------------------------------------------------|
D|-14~-12~-10~-9~--7--------------------------------------------------------|
A|-12~-10~-8~--7~--7--------------------------------------------------------|
E|-----------------5--------------------------------------------------------|

Solo - Guitar 2
e|-------------------------------------15p13--------------------------------|
B|-13-13(14)13p10--------13-13(14)13p10-----15-13-13(14)13p10---------------|
G|---------------10p9-7~-------------------------------------12-10----------|
D|----------------------------------------------------------------12-10-12--|
A|--------------------------------------------------------------------------|
E|--------------------------------------------------------------------------|

                           Tremolo Pick -----------------------------------
e|--------------------------------------13-15-17-19-13-15-17-19-19-15-17 13-|
B|-----------------------13-13(14)13p10-------------------------------------|
G|-10-12(13)-12p10-12p10----------------------------------------------------|
D|--------------------------------------------------------------------------|
A|--------------------------------------------------------------------------|
E|--------------------------------------------------------------------------|

T.P--------
e|-13-15-17-19-17-15-13-12~-10~-8~-7~-5~~-----------------------------------|
B|--------------------------------------------------------------------------|
G|--------------------------------------------------------------------------|
D|--------------------------------------------------------------------------|
A|--------------------------------------------------------------------------|
E|--------------------------------------------------------------------------|
| /  slide up
| \  slide down
| h  hammer-on
| p  pull-off
| ~  vibrato
| +  harmonic
| x  Mute note
=============================================================================
Tap to rate this tab
# A B C D E F G H I J K L M N O P Q R S T U V W X Y Z