Song name
# A B C D E F G H I J K L M N O P Q R S T U V W X Y Z

Misc Unsigned Bands - Saturday Night At The Apollo - This Way Demo tab

Help us improve GuitareTab! Take a short survey!
by Taytay

e---------------------------------|
B---------------------------------|
G---------------------------------|
D---------------------------------|     (x10)
A-----------3-----3---3---3-5-----|
E-5---5-3-5---5-3-------5-----3-4-|

e---------------------------------|
B---------------------------------|
G---------------------------------|
D---------------------------------|     (x4)
A-----------------3-3-3-3-5-5-5-5-|
E-5-5-5-5-5-5-5-5-----------------|

e-----------------|
B-----------------|
G-----------------|
D-----------------|     (x3)
A-----5-------5---|
E-0-------0-0---0-|

e-----------------|
B-----------------|
G-----------------|
D-----------------|     (x3)
A-----5------7-5-7|
E-0-------0-------|

(play in background)
e---------------------------------|
B---------------------------------|
G---------------------------------|
D---------------------------------|     (x4)
A-----------3-----3---3---3-5-----|
E-5---5-3-5---5-3-------5-----3-4-|

e---------------------------------|
B---------------------------------|
G---------------------------------|
D---------------------------------|     (x12)
A-----------3-----3---3---3-5-----|
E-5---5-3-5---5-3-------5-----3-4-|
Related for Saturday Night At The Apollo - This Way Demo tab