Song name
# A B C D E F G H I J K L M N O P Q R S T U V W X Y Z

Misc Unsigned Bands - Loving Intense Of The Orange Eclipse - Chase The Ace tab

   Artist : Loving Intense Of The Orange Eclipse
   Song Name : Chase The Ace
   Composed By : Chris Rands & Dave Cardy

             A Great Song for beginners!!

             INTRO                                 VERSE & CHORUS

         D                  C      G             D  D  D  C  C  G  G
E|-------2-------------|-----------3------|----2--2--2----------3--3----|
B|-------3-------------|----1-------------|----3--3--3----1--1----------|
G|-------2-------------|------------------|----2--2--2------------------|
D|---------------------|----2-------------|---------------2--2----------|
A|---------------------|----3------2------|---------------3--3--2--2----|
E|---------------------|-----------3------|---------------------3--3----|
                   SOLO   
                                        D
E|-------2--------2----|-2------2-------2-|-----------------------------|
B|---3--------3--------|---3------3-----3-|-----------------------------|
G|-2---2----2---2------|-----2------2---2-|-----------------------------|
D|---------------------|------------------|-----------------------------|
A|---------------------|------------------|-----------------------------|
E|---------------------|------------------|-----------------------------|


      Enjoy!
Tap to rate this tab
 
# A B C D E F G H I J K L M N O P Q R S T U V W X Y Z