Song name
# A B C D E F G H I J K L M N O P Q R S T U V W X Y Z

Misc Unsigned Bands - Crash - I Just Need A Little Rnr Rock N Roll Fixed tab

Song: I just need a little RNR (rock n roll)
played in the key of d,g,a,c#,b

{intro}
Rhythm
e-2----3--3---|-2----3--3----------------------------------|
b-3-2--3--3---|-3-2--3--3----------------------------------|
g-2-2--0--0-2-|-2-2--0--0-2--------------------------------|
D------0--0-2-|------0--0-2--------------------------------|
A------0--0-0-|------0--0-0--------------------------------|
E------3--3---|------3--3----------------------------------|
<------3x-----> this for the 4th

{verse}
e-------------|
b-3-2---------|
g-2-2--0--0-2-|8x
D-0----0--0-2-|
A------x--x-0-|
E------3--3---|

Lead (starts on 4th time)
e------------|
b------------|
g-7-6--------|4x
D-7-7-5--5-7-|
A-----5--5-7-|
E------------|

{chorus} both guitarists
e-----3----2-2----|-----3----2-2-----------------------|
b-----3----3-3----|-----3----3-3-----------------------|
g-4-4-0----2-2-2--|-4-4-0----2-2-2222222222222---------|
D-4-4-0--------2--|-4-4-0--------2222222222222---------|
A-2-2-0--------0--|-2-2-0--------0000000000000---------|
E-----3-----------|-----3------------------------------|
<------3x------->        this for 4th

{verse 2}
rhythm
e-2------3--3---|
b-3-2----3--3---|
g-2-2----0--0-2-|7x
D--------0--0-2-|
A--------0--0-0-|
E--------3--3---|

lead (starts on 3rd time)
e--------------|  |------------------|
b--------------|  |------------------|
g-7------------|3x|------------------|
D-7-6~\-5-5----|  |-7-6~\------------|
A-------5-5-7~-|  |-------5-5--7~~~~-|
E--------------|  |------------------|
                      4th time

{chorus} both guitarists
e-----3----2-2----|-----3----2-2-----------------------|
b-----3----3-3----|-----3----3-3-----------------------|
g-4-4-0----2-2-2--|-4-4-0----2-2-2222222222222---------|
D-4-4-0--------2--|-4-4-0--------2222222222222---------|
A-2-2-0--------0--|-2-2-0--------0000000000000---------|
E-----3-----------|-----3------------------------------|
<------3x------->        this for 4th

BRIDGE

e--------------------------|
b-3-3----3-3----3-3--------|
g-2-2-2--2-2-2--2-2-2------|4x
d-----2------2------2------|
a-----0------0------0------|
E--------------------------|

rhythm for solo
e-2----3-3---|
b-3-2--3-3---|repeat as much as necessary
g-2-2--0-0-2-|
D------0-0-2-|
A------0-0-0-|
E------3-3---|

{solo}
e----------------------------------------------------------------=
b-----------------------------------------9b10----------12b14r12-=
g----------------------------------------------12p9-----12b14r12-=
D-7-5b6~~~\--------9b10r-7~-5~\---------------------11~----------=
A-----------5-7~------------------5-5/7~-------------------------=
E----------------------------------------------------------------=

                          ^ ^^                ^     ^ 
|--------------------------------------------------------------------=
|-12b14-10------------------------3b4r3---------------------6b7-6b7~-=
|----------9~-------4b5r4-4-2-2~----------2~~-4-2p0---2~~------------=
|----------------------------4----------4-----------4----------------=
|--------------------------------------------------------------------=
|--------------------------------------------------------------------=

  ^                             ^  ^
|-------------------------14b15---------------------------------=
|---------15b16-15b16~~~~-------17-19-20b22~-17----20-----20----=
|-7-5~-----------------------------------------19~-19b20--19b20-=
|---------------------------------------------------------------=
|---------------------------------------------------------------=
|---------------------------------------------------------------=

|----------------17--------------------------------------------|
|------------------20p17--17-----------------------------------|
|-17~-------------------20--20p17-19-----------7-6~------------|
|-----x<~~~~~~~~--------------------17-15~\----7---------------|
|-----x<~~~~~~~~------------------------------------5-5-7~~~~~-|
|--------------------------------------------------------------|

{verse 2}
rhythm
e-2----3--3----|  |------3-------2-------|
b-3-2--3--3----|  |------3-------3-------|
g-2-2--0--0-2--|8x|4-----0-------2-----2-|2x
D------0--0-2--|  |4-----0-------------2-|
A------0--0-0--|  |2-----0-------------0-|
E------3--3----|  |------3---------------|

lead
e--------------|  |-----------------------|
b--------------|  |-----------------------|
g--------------|8x|--------------7--------|2x
D-7-6~---------|  |9-----5-------7-----7~-|
A------5-5-7~--|  |9-----5-------5-----7~-|
E--------------|  |7-----3----------------|

Repeat:
Chorus (first section) 4x
then on 4th time do the interlude

{interlude}

e---3-----------------------------------7------------=
b---3---8b9-8b10---------3----10---10----10-7---7----=
g-4-0------------9p7-----2-2--9b10-9b10-------9--7---=
D-4-0---------------9~---0-2----------------------9~-=
A-2-x----------------------0-------------------------=
E---3------------------------------------------------=
 
                                                       ^ ^  ^
e---3--------------------------------------------------17------------------=
b---3---15b16~-15b16~-16p14------17--------3----20b22~---20-17-------------=
g-4-0----------------------16b18-----14~~~-2-2----------------19~~~--------=
D-4-0--------------------------------------0-2-----------------------------=
A-2-x----------------------------------------0-------------------------12\-=
E---3----------------------------------------------------------------------=

=-------------|
=-------------|
=-------------|
=-x<~~~~~~~~~-|
=-x<~~~~~~~~~-|
=-------------|

{outro}
e----------------------------------------------|
b----------------------------------------------|
g-7-----6~~~---------------------------------2-|
D-7-------------5----------------------------2-|
A---------------5----5-7~~~~~~~~~~~~~~~~~~~~-0-|
E----------------------------------------------|

legend

b=bend
p=pull off
h=hammer on
x<~=pick scrape
~=vibrato
\=slide down
/=slide up
x=scratch
Tap to rate this tab
# A B C D E F G H I J K L M N O P Q R S T U V W X Y Z