Song name
# A B C D E F G H I J K L M N O P Q R S T U V W X Y Z

Misc Unsigned Bands - Voodoo Queens - Supermodel Superficial tab

----------------------------------------------------------------------------
		     SUPERMODEL SUPERFICIAL - Voodoo Queens
----------------------------------------------------------------------------
Tabbed by: illy93
Tuning: Standard

Verse Riff:
e|--------------------|
B|--------------------|
G|--------------------|
D|--222-777-444-5555--|
A|--222-777-444-5555--|
E|--000-555-222-3333--|

Chorus:
e|---------------------------------|
B|---------------------------------|
G|-----------------------6b7777-6--|
D|----5-7-7b88-7-5---5-7-----------|
A|--7--------------7---------------|
E|--0------------------------------|

Solo: (not spot on but sounds like it)

e|----------------12121212\10101010---------------------------------------|
B|----7b87b87-----------------------777b87--------------------------------|
G|--9---------9-7-------------------------7-9b1010101010-7-9b1010101010---|
D|------------------------------------------------------------------------|
A|------------------------------------------------------------------------|
E|------------------------------------------------------------------------|

NOTE: in solo 121212 = 12 not 1-2
              101010 = 10 not 1-0

KEY:
b = bend note
\ = slide down

===========================================================================
Tap to rate this tab
# A B C D E F G H I J K L M N O P Q R S T U V W X Y Z