Song name
# A B C D E F G H I J K L M N O P Q R S T U V W X Y Z

Misc Unsigned Bands - Swat - All The Above tab

Help us improve GuitareTab! Take a short survey!
GUITAR INTRO
e[-----------------------------------------]
b[-----------------------------------------]
g[-----------------------------------------]
d[-----------------------------------------]
a[19--19-17--17-15--15-15-14-12-10-9-7-----]
e[-----------------------------------------]

MAIN CHORUS
e[-----------------------------------------------------------------]
b[-----------------------------------------------------------------]
g[-----------------------------------------------------------------]
d[-----------------------------------------------------------------]
a[-7-9-10-12-10-9-9-7---7-9-10-12-14-15-15-14---7-9-10-12-10-9-9-7-]
e[-----------------------------------------------------------------]

e[--------------]
b[--------------]
g[--------------]
d[--------------] Play Twice
a[-7-9-10-9-5-9-]
e[--------------]

Solo 1
e[--------------------------------------------------------------]
b[--------------------------------------------------------------]
g[--------------------------------------------------------------]
d[--------------------------------------------------------------]
a[-14-14-14--15-15-14---14-14-14--17-15-14---14-14-14--15-15-14-]
e[--------------------------------------------------------------]

e[-------------------------------]
b[-------------------------------]
g[-------------------------------]
d[-------------------------------]
a[-14-14-14--15--17--19-19-19-19-]
e[-------------------------------]

Solo 2
e[-------------------------------]
b[-------------------------------]
g[-------------------------------]
d[-----0-2-----0-2-----0-2-3-2-0-] Play 4 Times
a[-2-2-----2-2-----2-2-----------]
e[-------------------------------]

Solo 2.5
e[-------------------------------]
b[-0-0-3-5-0-0-3-5-0-0-3-5-6-5-3-]
g[-------------------------------]
d[-------------------------------]
a[-------------------------------]
e[-------------------------------]

Repeat Main Chorus

Chorus / Solo 3
e[-------------------------------------------------------------------------]
b[-------------------------------------------------------------------------]
g[----------14-----------------------14-16-17-17-16-----------14-----------]
d[-14-16-17----17-16-16-14--14-16-17-----------------14-16-17----17-16-16-14
a[-------------------------------------------------------------------------]
e[-------------------------------------------------------------------------]

e[-------------------]
b[-------------------]
g[-------------------]
d[-14-16-17-16-12-14-]
a[-------------------]
e[-------------------]

Ending
e[---------------------------------------------------------]
b[---------------------------------------------------------]
g[---------------------------------------------------------]
d[---------------------------------------------------------]
a[-19------17------15------14------19------17------15------]
e[---------------------------------------------------------]

e[---------------------------------------------]
b[---------------------------------------------]
g[---------------------------------------------]
d[---------------------------------------------]
a[-14-12-10-9-14-12-10-9-14-12-10-9-7----------]
e[---------------------------------------------]
Related for Swat - All The Above tab