Guitaretab - guitar tabs
Song name
# A B C D E F G H I J K L M N O P Q R S T U V W X Y Z

Misc Unsigned Bands - Better Dressed Than Adam - Sit With Me tab

Sit With Me by Better Dressed Than Adam
Tuning: Standard
Tabbed by Ross of Better Dressed Than Adam

Intro

Guitar 1 (crunch)
e----------------------------------|
b----------------------------------|
g----------------------------------| 
d-9-9-9-9-9-9-9-9-9-9-9-9-9-9-9-9--|
a-7-7-7-7-7-7-7-7-6-6-6-6-6-6-6-6--|
E----------------------------------|
PM ..............................

e----------------------------------|
b----------------------------------|
g----------------------------------|
d-9-9-9-9-9-9-9-9-9-9-9-9-9-9-9-9--|
a-0-0-0-0-0-0-0-0-0-0-0-0-9-9-9-9--|
E----------------------------------|
  ...............................

Guitar 2 (crunch)
e----------------------------------|
b----------------------------------|
g13~-11~-13~-9~-13~-11~-13~-6-7~--|
d----------------------------------|
a----------------------------------|
E----------------------------------|

e----------------------------------|
b----------------------------------|
g----------------------------------|
d-13~-11-13-14~-6666777799999999---|
a----------------------------------|
E----------------------------------|

Verse 

Guitar 1
e------------------------------------------------|
b------------------------------------------------|
g-9----8------9-9-9-9-9-9-9-9-9-9-9-9-8-8-8-8----|
d-9----9------9-9-9-9-9-9-9-9-9-9-9-9-9-9-9-9----|
a-7----6------0-0-0-0-0-0-0-0-0-0-0-0-9-9-9-9----|
E------------------------------------------------|

Guitar 2
e------------------------------------------------|
b--------------------1212-1010-9-9-1010-9--9-----|
g-9----8------8-8-9-9--------------------11-11---|
d-9----9-----------------------------------------|
a-7----6-----------------------------------------|
E------------------------------------------------|

Pre-Chorus
[ Tab from: http://www.guitaretab.com/m/misc-unsigned-bands/100160.html ]
Guitar 1
e-----------------------------------------|
b-----------------------------------------|
g-99999999------------66666666--44444444--|
d-99999999--77777777--66666666--44444444--|
a-77777777--77777777--44444444--22222222--|
E-----------55555555----------------------|

Guitar 2
e----------------7--7-7-------------------|
b-9-9-9-7-7--9-9------9-9--7-7------------|
g-------------------------------8-8-9-9---|
d-----------------------------------------|
a-----------------------------------------|
E-----------------------------------------|

Chorus

Guitar 1
e-----------------------------------------|
b-55555555------------55555555--44444444--|
g-66666666--66666666--66666666--44444444--|
d-66666666--77777777--66666666--44444444--|
a-44444444--77777777--44444444-22222222--|
E-----------55555555----------------------|

Guitar 2
e-----------------------------------------|
b-55555555----------------------44444444--|
g-66666666--66666666--99999999--44444444--|
d-66666666--77777777--xxxxxxxx--44444444--|
a-44444444--77777777--77777777-22222222--|
E-----------55555555----------------------|

Verse
Pre-chorus
Chorus

Bridge

Guitar 2 (clean), Guitar 1 silent
e---------------------------------|----------------------|
b---------0---------------0-------|---------0------------|
g-----4-----4---4-----4-----4---4-|-----4-----4---4------|
d---2---2-----2-----2---2-----2---|---2---2-----2----x2--|x16
a-4---------------0---------------|-2--------------------|
E---------------------------------|----------------------|

Outro

Guitar 1, Guitar 2 silent
e----------------------------------|
b----------------------------------|
g----------------------------------| 
d-9-9-9-9-9-9-9-9-9-9-9-9-9-9-9-9--|
a-7-7-7-7-7-7-7-7-6-6-6-6-6-6-6-6--|
E----------------------------------|
PM ..............................

e----------------------------------|
b----------------------------------|
g----------------------------------|
d-9-9-9-9-9-9-9-9-9-9-9-9-9-9-9-9--|
a-0-0-0-0-0-0-0-0-0-0-0-0-9-9-9-9--|
E----------------------------------|
  ...............................

e--0~-----|
b--0~-----|
g--9~-----|
d--9~-----|
a--7~-----|
E---------|

Related for Better Dressed Than Adam - Sit With Me tab