Song name
# A B C D E F G H I J K L M N O P Q R S T U V W X Y Z

Misc Unsigned Bands - Fact Not Fiction - Girls That Say Like tab

Fact Not Fiction
www.factnotfictiononline.com
Words by Zeke Sayer
Music by Zeke Sayer / Jon Bryant




Played at the opening, verses, and solo.

(First Guitar)
--------------------------------------|
----------------5-----5---5---5-------|
--------5---------5-5---5---5---5-----|
----7-----7---------------------------|
------------8-8-----------------------|
--------------------------------------|

(Second Guitar)

-----------------------------------------|
--------1-----1-----------1--------------|
------2-----0---0-------0---0---0--------|
----2-----3-------3---2-------2----------|
--0-----------------3--------------------|
-----------------------------------------|


Bridge (Strummed)

    F                    C
And I've tried, how i've tried.
    F                  C
To Get you back on my side.
    F           Am
And I can not recall
   C   G
a more perfect time at all.


Fsus  C   (Jam out part)

And that's pretty much the whole song.
Tap to rate this tab
# A B C D E F G H I J K L M N O P Q R S T U V W X Y Z