Song name
# A B C D E F G H I J K L M N O P Q R S T U V W X Y Z

Misc Unsigned Bands - Breathe The Plague - Splitchoshit tab

-------------------------------------------------------------------------------
			     Splitchoshit - Breathe The Plague
-------------------------------------------------------------------------------
Tabbed by: Joe K	


myspace.com/breathetheplague
The recording is tuned to dropped A#, but the song is played in dropped b


Tuning:B,F#,B,E,G#,C#

C#|---------------------------------------------------------------------------|
G#|---------------------------------------------------------------------------|
E |---------------------------------------------------------------------------|
B |----------------------(TREMELO)-----------------------(TREMELO)------------|
F#|---------555----------4444444444-----------555---------44444 4*------------|
B |-111-444------111-444-------------111-444-----111-444----------------------|
    ... ...      ... ...             ... ...     ... ...
C#|---------------------------------------------------------------------------|
G#|---------------------------------------------------------------------------|
E |---------------------------------------------------------------------------|
B |---------------------(TREMELO)---------------------------------------------|
F#|---------555---------444444444---------555---------4-----------------------|
B |-111-444-----111-444-----------111-444-----111-444-------------------------|
    ... ...     ... ...           ... ...     ... ...
C#|---------------------------------------------------------------------------|
G#|---------------------------------------------------------------------------|
E |---------------------------------------------------------------------------|
B |---------------------------------------------------------------------------|
F#|----1p0-4p0---0--------------------1p0-4p0---0----------*4-----------------|
B |-00-1p0-4p0-0-0-0-0-0-000-000---00-1p0-4p0-0-0-0-0-0-4p1-------------------|
    ..         .   . . . ... ...   ..         .   . . .  
C#|---------------------------------------------------------------------------|
G#|---------------------------------------------------------------------------|
E |---------------------------------------------------------------------------|
B |---------------------------------------------------------------------------|
F#|----1p0-4p0---0--------------------1p0-4p0---0-----------------------------|
B |-00-1p0-4p0-0-0-0-0-0-000-000---00-1p0-4p0-0-0-0-0-0-000-------------------|
    ..         .   . . . ... ...   ..         .   . . . ...
C#|---------------------------------------------------------------------------|
G#|-(SLOWED DOWN)-----(SLOWED DOWN)------(SLOWED DOWN)-----(SLOWED DOWN)------|
E |---------------------------------------------------------------------------|
B |---------------------------------------------------------------------------|
F#|----1p0-4p0---0--------------------1p0-4p0---0----------*4-----------------|
B |-00-1p0-4p0-0-0-0-0-0-000-000---00-1p0-4p0-0-0-0-0-0-4p1-------------------|
    ..         .   . . . ... ...   ..         .   . . .
C#|---------------------------------------------------------------------------|
G#|-(SLOWED DOWN)-----(SLOWED DOWN)------(SLOWED DOWN)------------------------|
E |---------------------------------------------------------------------------|
B |---------------------------------------------------------------------------|
F#|----1p0-4p0---0--------------------1p0-4p0---0-----------------------------|
B |-00-1p0-4p0-0-0-0-0-0-000-000---00-1p0-4p0-0-0-0-0-0-000000----------------|
    ..         .   . . . ... ...   ..         .   . . . ......
C#|---------------------------------------------------------------------------|
G#|---------------------------------------------------------------------------|
E |-------------(play this whole thing three times)----------(not triplets)---|
B |---------------------------------------------------------------------------|
F#|-------1------------------1------------------1----------------444-----555--|
B |-1-4-1---4-1-000000-1-4-1---4-1-000000-1-4-1---4-1-000000-111-----444------|
                ......             ......             ......
C#|---------------------------------------------------------------------------|
G#|---------------------------------------------------------------------------|
E |------(play four times)----------------------------------------------------|
B |------------------------------0--------------------------------------------|
F#|-------555---------444444 4*--0---------------------------1h4p1~------------|
B |-444-1-----444-111------------0-------000-000-000-000-0---1h4p1~------------|
    ... .     ... ...                    ... ... ... ... .
C#|---------------------------------------------------------------------------|
G#|---------------------------------------------------------------------------|
E |---------------------------------------------------------------------------|
B |---------------------------------------------------------------------------|
F#|---------------------------------------------------------------------------|
B |-000-000---000-000--000---000-000-000-000--000-----------------------------|
    ... ...   ... ...  ...   ... ... ... ...  ...
C#|---------------------------------------------------------------------------|
G#|---------------------------------------------------------------------------|
E |------------(play this twice)----------------------------------------------|
B |---------------------------------------------------------------------------|
F#|-000-000---000-000--000----------------------------------------------------|
B |-111-111---111-111--111---000-000---000-000--000---------------------------|
    ... ...   ... ...  ...
C#|---------------------------------------------------------------------------|
G#|---------------------------------------------------------------------------|
E |-(play three times)--------------------------------------------------------|
B |---------------------------------------------------------------------------|
F#|---------4--------------------4--------------------------------------------|
B |-1-1-4-1---4-1-0~-----1-1-4-1---4-1-0-0-0--0-0-0---------------------------|
                                         . .  . . .
C#|---------------------------------------------------------------------------|
G#|---------------------------------------------------------------------------|
E |-------(play three times)--------------------------------------------------|
B |---------------------------------------------------------------------------|
F#|---------4---------------------------------4-------------------------------|
B |-1-1-4-1---4-1-0-0-000-000-000-0---1-1-4-1---4-1-0-0-0--0-0-0--------------|
                    . ... ... ... .                  . .  . . .
C#|---------------------------------------------------------------------------|
G#|---------------------------------------------------------------------------|
E |-------(play three times)--------------------------------------------------|
B |---------------------------------------------------------------------------|
F#|-1----4----1-------------------1----4----1---------------------------------|
B |-1-00-4-00-1-0-000-000-000-0---1-00-4-00-1-0-0--0-0-0-0--------------------|
      ..   ..   . ... ... ... .     ..   ..   . .  . . . .

C#|---------------------------------------------------------------------------|
G#|---------------------------------------------------------------------------|
E |----------(play twice)-----------------------------------------------------|
B |---------------------------------------------------------------------------|
F#|-0-0---0-0-0-0-0-0---1h4-4----0-0---0-0-0-0-0-0---4p1-1----0-0---0-0-0-0---|
B |-0-0---0-0-0-0-0-0---1h4-4----0-0---0-0-0-0-0-0---4p1-1----0-0---0-0-0-0---|

C#|---------------------------------------------------------------------------|
G#|---------------------------------------------------------------------------|
E |----(play three times)-------------------------------(play twice)----------|
B |---------------------------------------------------------------------------|
F#|-1-0---0-0-0-0-0-0---1h4-4----1-0---0-0-0-0-----1-0------------------------|
B |-1-0---0-0-0-0-0-0---1h4-4----1-0---0-0-0-0-----1-0---0-0-0-0-0-0-0---0-0--|
    - -   - - - - - -             - -   - - - -    - -   - - - - - - -   - -

C#|---------------------------------------------------------------------------|
G#|---------------------------------------------------------------------------|
E |---------------------------------------------------------------------------|
B |---------------------------------------------------------------------------|
F#|-1-0---0-0-0-0-0-0---0-0----1-0---0-0-0-0-------------4*---1-0~------------|
B |-1-0---0-0-0-0-0-0---0-0----1-0---0-0-0-0-111-444-111------1-0~------------|



| h  hammer-on
| p  pull-off
| ~  hold note
| *  harmonic
| .  Mute note
| -  Lightly Mute
===============================================================================
Tap to rate this tab
# A B C D E F G H I J K L M N O P Q R S T U V W X Y Z