Song name
# A B C D E F G H I J K L M N O P Q R S T U V W X Y Z

Misc Unsigned Bands - Lliam Morrice - Love By Day Hate By Night tab

Help us improve GuitareTab! Take a short survey!
Lliam.Morrice--Love by day hate by night!

Tabbed by:Lil-Dim
Email:

Tuning:Normal

Intro+Verse

e|---------------------------------------------------------------------------|
B|---------------------------------------------------------------------------|
G|---------------------------------------------------------------------------|
D|-----0--0--0--0--0--0--0--0--0--0--0--0--0--0--0--2--2--2--2--2------------|
A|---55-55-55-55-55-44-44-44-44-44-22-22-22-22-22-00-00-00-00-00-------------|
E|---------------------------------------------------------------------------|
Play this x3

Chorus

e|---------------------------------------------------------------------------|
B|---------------------------------------------------------------------------|
G|---------------------------------------------------------------------------|
D|-----7--7--7--7--7--7--7--7--7--7--7--7--7--7--7---------------------------|
A|---55-55-55-55-55----------------------------------------------------------|
E|------------------77-77-77-77-77-55-55-55-55-55----------------------------|
Play this x2

e|---------------------------------------------------------------------------|
B|---------------------------------------------------------------------------|
G|---------------------------------------------------------------------------|
D|---77777777----------------------------------------------------------------|
A|---55555555-77777777-99999999-55555555-------------------------------------|
E|------------55555555-77777777-33333333-------------------------------------|
Play this x3

Order:
Intro x1
Verse x2
Chorus x2
Verse x2
Chorus x2
Solo x2
Chorus x2

I made this song all by myself lol :P
Related for Lliam Morrice - Love By Day Hate By Night tab