Song name
# A B C D E F G H I J K L M N O P Q R S T U V W X Y Z

Misc Unsigned Bands - Black Acid - Streak Of Lightning tab

Hey this is my band and its a song I wrote.
Its pretty good.

e|-----------6-5---8-6---6-5-------|
B|-----6-5---------------------5---|
G|---7-----7-----7-----7-----7-----|
D|---------------------------------|
A|---------------------------------|
E|---------------------------------|

e|--------------------------------------|
B|--------------------------------------|
G|---------0---2-------------0---2-3-2--|
D|-------3-------3-2-------3------------|
A|-----2-----------------2--------------|
E|---0-----------------0----------------|

and thats all till I have time to do more.

Which will be soon.
Tap to rate this tab
 
# A B C D E F G H I J K L M N O P Q R S T U V W X Y Z