Song name
# A B C D E F G H I J K L M N O P Q R S T U V W X Y Z

Misc Unsigned Bands - Rag Men - My World tab

----------------------------------------------------------------------------
			     MY WORLD - Rag Men
----------------------------------------------------------------------------
Tabbed by: John Barby
Email: thejbles@hotmail.co.uk

This is my first attempt at writing a tab on the net so all criticism welcome. I wanted
post this song because no one as far as i can tell has tabbed Rag Men and i was hoping
there was anyone out there who has figured any more songs out by this band that they 
post them on the site. If so then please do cuz i love this band!

Tuning: Full step down (DGCFAD)

Intro/Verse: (Been around the block so many times...)
e|-------------------------------------------------------------------------|
B|-------------------------------------------------------------------------|
G|-------------------------------------------------------------------------|
D|--9/101010-7-7-7/9-7/9--9/101010-7-7-7/9-2-------------------------------|
A|--7/8-8-8--5-5-5/7-5/7--7/8-8-8--5-5-5/7-2-------------------------------|
E|-----------------------------------------0-------------------------------|

Chorus: (You think you're living, what you live is a lie...)
e|-------------------------------------------------------------------------|
B|-------------------------------------------------------------------------|
G|-------------------------------------------------------------------------|
D|--5-X-5/7-4-3--5-X-5/7-4-3--5-X-5/7-4-3--5-X-5/7-4-3---------------------|
A|--X-X-X-X-X-X--X-X-X-X-X-X--X-X-X-X-X-X--X-X-X-X-X-X---------------------|
E|--3-X-3/5-2-1--3-X-3/5-2-1--3-X-3/5-2-1--3-X-3/5-2-1---------------------|

Bridge Part 1: (not sure if this is 100% correct)
                   (Open up your eyes...)
e|-------------------------------------------------------------------------|
B|-------------------------------------------------------------------------|
G|-------------------------------------------------------------------------|
D|--55555555555555--2-3-4-5---x2 then--5-5-7-7-2----\-slide down-----------|
A|--33333333333333--2-3-4-5------------3-3-5-5-2----\----------------------|
E|------------------0-1-2-3--------------------0----\----------------------|

Bridge Part 2: (Your life...)
e|-------------------------------------------------------------------------|
B|-------------------------------------------------------------------------|
G|-------------------------------------------------------------------------|
D|--5-5-5/9----------5-5-5/9-7-7-7-----------------------------------------|
A|--3-3-3/7----------3-3-3/7-5-5-5-----------------------------------------|
E|----------0-0-0-00-------------------------------------------------------|

Thats played twice then a second guitar plays this over the top for the last two runs:
e|-------------------------------------------------------------------------|
B|-------------------------------------------------------------------------|
G|--5-5-5/9----------5-5-5/9-7-7-7--5-5-5/9----------5-5-5-7---------------|
D|--X-X-X-X----------X-X-X-X-X-X-X--X-X-X/X----------X-X-X-X---------------|
A|--3-3-3/7----------3-3-3/7-5-5-5--3-3-3/7----------3-3-3-5---------------|
E|----------0-0-0-00------------------------0-0-0-00-----------------------|

Bridge End:
e|-------------------------------------------------------------------------|
B|-------------------------------------------------------------------------|
G|------------------------S------------------------------------------------|
D|--9/1010101010-2--x 4---T--on last e chord-------------------------------|
A|--7/8-8-8-8-8--2--------O------------------------------------------------|
E|---------------0--------P------------------------------------------------|

Outro:
e|-------------------------------------------------------------------------|
B|-------------------------------------------------------------------------|
G|-------------------------------------------------------------------------|
D|--5-5-7-7-2-----9-9-9-7-------9-9-9-5-------9-9-9-7------9----4----4/5---|
A|--3-3-5-5-2-----7-7-7-5-------7-7-7-3-------7-7-7-5------7----2----2/3---|
E|----------0-------------0-0-0---------0-0-0---------0000---00---00-------|

Song Order:-
Verse:     x5
Chorus:    x4
Verse:     x4 (third time palm-muted)
Chorus:    x8
Break Pt1: x2 (with link)
Break Pt2: x4 (2nd guitar coming in on third time for two measures)
End Break: x4
Verse:     x4
Chorus:    x4
Outro: till you get bored. Good riff so play it forever!

| /  slide up
| \  slide down
| h  hammer-on
| p  pull-off
| ~  vibrato
| +  harmonic
| x  Mute note
Tap to rate this tab
# A B C D E F G H I J K L M N O P Q R S T U V W X Y Z