Song name
# A B C D E F G H I J K L M N O P Q R S T U V W X Y Z

Misc Unsigned Bands - Malle Pietje En The Bimbos - 13 tab

--------------------------------------------------------------
               13 - Malle Pietje & the Bimbos
--------------------------------------------------------------
Tabbed by: Ricky Goeree
Email: rickyg07@live.nl

Intro

e|-----------------------------------------------------------|
B|-----------------------------------------------------------|
G|-------12--12-12-7--7-7------------------------------------|
D|-9-9-9-12--12-12-7--7-7-7--7-7-----------------------------|
A|-9-9-9-10--10-10-5--5-5-7--7-7-----------------------------|
E|-7-7-7------------------5--5-5-----------------------------|

Verse

e|-----------------------------------------------------------|
B|-----------------------------------------------------------|
G|-----------------------------------------------------------|
D|-9-9-9-9-9-9-9-9-9-9-9-9-9-9-9-9-9-9-9-9-9-9-9-9-9-9-9-9-9-|
A|-9-9-9-9-9-9-9-9-9-9-9-9-9-9-9-9-9-9-9-9-9-9-9-9-9-9-9-9-9-|
E|-7-7-7-7-7-7-7-7-7-7-7-7-7-7-7-7-7-7-7-7-7-7-7-7-7-7-7-7-7-|

e|-----------------------------------------------------------|
B|-----------------------------------------------------------|
G|----------------------7--7-7-7-7-7-7-----------------------|
D|-9-9-9-5--5-5-5-5-5-5-7--7-7-7-7-7-7-----------------------|
A|-9-9-9-5--5-5-5-5-5-5-5--5-5-5-5-5-5-----------------------|
E|-7-7-7-3--3-3-3-3-3-3--------------------------------------|

Chorus

e|-----------------------------------------------------------|
B|-----------------------------------------------------------|
G|-----------------------------------------------------------|
D|-5-5-5-5-5-5-5-5-5-5-5-5-5-5-5-5-7--7-7-7-7-7-7-7-7-7-7-7--|
A|-5-5-5-5-5-5-5-5-5-5-5-5-5-5-5-5-7--7-7-7-7-7-7-7-7-7-7-7--|
E|-3-3-3-3-3-3-3-3-3-3-3-3-3-3-3-3-5--5-5-5-5-5-5-5-5-5-5-5--|

e|-----------------------------------------------------------|
B|-----------------------------------------------------------|
G|---------4--4/7-4-4/7--4-4/7-4-4/7--4-4/7-4-4/7--4-4/7-4-4-|
D|-7-7-7-7-4--4/7-4-4/7--4-4/7-4-4/7--4-4/7-4-4/7--4-4/7-4-4-|
A|-7-7-7-7-2--2/5-2-2/5--2-2/5-2-2/5--2-2/5-2-2/5--2-2/5-2-2-|
E|-5-5-5-5---------------------------------------------------|

e|-----------------------------------------------------------|
B|-----------------------------------------------------------|
G|-/7--------------------------------------------------------|
D|-/7--------------------------------------------------------|
A|-/5--------------------------------------------------------|
E|-----------------------------------------------------------|

Guitar Solo

e|-5b----1b----5b----1b--------------------------------------|
B|----5~----1~----5~-----------------------------------------|
G|-----------------------------------------------------------|
D|-----------------------------------------------------------|
A|-----------------------------------------------------------|
E|-----------------------------------------------------------|


| /  slide up
| b  bend
| ~  vibrato
==============================================================
Tap to rate this tab
# A B C D E F G H I J K L M N O P Q R S T U V W X Y Z