Song name
# A B C D E F G H I J K L M N O P Q R S T U V W X Y Z

Misc Unsigned Bands - Tdwp Demo - Html tab

Help us improve GuitareTab! Take a short survey!
Tuning:DADGBE

Intro - 0:00-0:10

|--------------------|
|--------------------|
|-9--9--9999--99-9/10|     
|-x--x--xxxx--xx-x/x|
|-7--9--7777--77-7/8|
|-------------------|


0:10-0:20
e|----------------------------|----------|---------------------------------|
B|----------------------------|----------|---------------------------------|
G|---------------------141414-|---141414-|---121212------------------------|
D|-8-8888888888888888--x-x-x--|-0-x-x-x--|-0-x-x-x-------------------------|
A|-8-8888888888888888--121212-|-0-121212-|-0-101010------------------------|
D|-8-8888888888888888---------|-0--------|-0-------------------------------|
                            x2         x3

0:20-0:31
e|-----------------------------------|----------|----------|
B|-----------------------------------|----------|----------|
G|-----------------------------------|---141414-|---121212-|
D|-3333333333333333-5555555555555555-|-0-x-x-x--|-0-x-x-x--|
A|-3333333333333333-5555555555555555-|-0-121212-|-0-101010-|
D|-3333333333333333-5555555555555555-|-0--------|-0--------|
                                                          x3

0:32-0:36
e|----|
B|----|
G|----|
D|-12-|  You can figure out the strumming, right?
A|-12-|  On Plagues, the second time around guitar 2 comes in with
D|-12-|  that |
              |
e|---|        |
B|---|       /
G|-7-|      /
D|-x-|  <---
A|-5-|
D|-0-|

On Plagues, unlike their demo they put on their myspace, there's up to 4 guitarists at
next part. Guitar 1 is playing the open palm mutes, Guitar 4 is playing the D chord (the 
one) rythm above, and guitar 2 is playing the octave chords. The octave chords are then 
which i tabbed for guitar 3.


Guitar 1
0:36-0:47                                  x2
e|------------------------------------------|
B|--------------------------------------0-0-|
G|--------------------------------------0-0-|
D|------------------------------------------|
A|-000000-0-0-000000-000000-000000-0-0-0-0--|
D|-000000-0-0-000000-000000-000000-0-0-0-0--|
   ...... . . ...... ...... ...... . . . .

Guitar 2
0:36-0:47                                    x2
e|--------------------------------------------|
B|--------------------------------------------|
G|-77777777-1010-99-77-55-33333333--10101010~-|
D|-xxxxxxxx-x-x--xx-xx-xx-xxxxxxxx--x-x-x-x---|
A|-55555555-8-8--77-55-33-11111111--8-8-8-8~--|
D|--------------------------------------------|

Guitar 3
0:36-0:47
e|----------------------------------------------------|
B|----------------------------------------------------|
G|-1414141414-1717-1515-1414-1212-1010101010-14141414-|
D|-x-x-x-x-x--x-x--x-x--x-x--x-x--x-x-x-x-x--x-x-x-x--|
A|-1212121212-1515-1313-1212-1010-8-8-8-8-8--12121212-|
D|----------------------------------------------------|

0:47-0:52
e|----|
B|----|
G|----|
D|-0~-|
A|-0~-|
D|-0~-|


0:53-1:14  Strumming is incorrect, but you get the point.
e|----------------------------------------------------------------|
B|----------------------------------------------------------------| <- This
G|----------------------------------------------------10p7p0-7h10-|    part
D|-121212121212-101010101010-888888888888-88888888888-------------|   needs
A|-121212121212-101010101010-888888888888-88888888888-------------|   help?
D|-121212121212-101010101010-888888888888-88888888888-------------|


1:14-1:36
e|---|
B|---|
G|---|
D|---| You can figure the rythm.
A|-0-|
D|-0-|
   .

1:36-1:38
e|---------------------|
B|---------------------|
G|---------------------|
D|---------------------|
A|-0-5-3-0-2-0-3-0-----|
D|-0-5-3-0-2-0-3-0-3b*-|
   . . . . . . . .

1:38-1:52
e|------|        |---------|
B|--x4--|        |---------|
G|------|        |---------|
D|------| End on |-0000000-|
A|-0-0~-|        |-0000000-|
D|-0-0~-|        |-0000000-|
   .

Guitar 1
2:08-2:37
e|-------------------------------------------------------------|
B|-------------------------------------------------------------| <- This
G|-------------------------------------------------------------|    part
D|-1212121212121212-1010101010101010-88888888-1010101010101010-|   needs
A|-1212121212121212-1010101010101010-88888888-1010101010101010-|   help?
D|-1212121212121212-1010101010101010-88888888-1010101010101010-|

Piss.

Guitar 2
2:08-2:37
e|---------------------------------------------------------------------|
B|---------------------------------------------------------------------|
G|-1414141414141414-1212121212121212-1010101010101010-1212121212121212-|
D|-x-x-x-x-x-x-x-x--x-x-x-x-x-x-x-x--x-x-x-x-x-x-x-x--x-x-x-x-x-x-x-x--|
A|-1212121212121212-1010101010101010-8-8-8-8-8-8-8-8--1010101010101010-|
D|---------------------------------------------------------------------|


2:37-2:42
e|----|
B|----|
G|----|
D|-0~-| And pickslide into next riff
A|-0~-|
D|-0~-|


2:42-3:09                                                   x5
e|------------------------------------------------------------|
B|------------------------------------------------------------|
G|------------------------------------------------------------|
D|-----9p0-------10p0--------------------9p0-------101010-555-|
A|-0-0-----7p0-0------8p0-0-10p0-7p0-0-0-----7p0-0-101010-555-|
D|-0-0---------0----------0----------0-0---------0-101010-555-|
   . .         .          .          . .         .

3:09-3:11
e|-------------------------------|
B|-0~----------------------------|
G|-0~----------------------------|
D|-0~----------------------------|
A|-0~--------------------------0-|
D|-----------------------------0-|
                               .

3:12-3:25
e|-----------------------------------|
B|-----------------------------------|
G|-----------------------------------|
D|-------------------------------<5>-|
A|-0-(You know the rythm by now)-<5>-|
D|-0---------------------------------|
   .

3:26-3:33
e|--------------------------|
B|--------------------------|
G|--------------------------|
D|--------------------------|
A|-1-(Same rythm as always)-|
D|-2------------------------|
   .

3:33-3:40
e|------------------------------------|
B|------------------------------------|
G|------------------------------------|
D|------------------------------------|
A|-0-(Once again, its the same rythm)-|
D|-0----------------------------------|
   .

3:41
e|---|
B|---|
G|---|
D|-0-|
A|-0-|
D|-0-|
Related for Tdwp Demo - Html tab