Song name
# A B C D E F G H I J K L M N O P Q R S T U V W X Y Z

Misc Unsigned Bands - Tyler Johnson Experience - Good Stuff tab

e--------------------------------------------------------------------------]
B--------------------------------------------------------------------------]
G-------4-----------4-----------4-----------4-----------4-----------4------]
D----4-----4-----4-----4-----4-----4-----4-----4-----4-----4-----4-----4---]
A-2-----------2------------------------------------------------------------]
E-------------------------2-----------2-----------0-----------0------------]
(A
e--------------------------------------------------------------------------]
B-------------------4-------------------4--------------------------4-------]
G-------4--------------4---4---44-4--------4-----4---4---44-4---------4----]
D----4-----4-----4---------4---44-4-----------4------4---44-4------------4-]
A--------------------------2---22-2------------------2---22-2--------------]
E-0-----------0------------2---22-0------------------2---22-0--------------]
                         B)
e--------------------------------------------------------------------------]
B--------------------------------------------------------------------------]
G-4-------4~~~~~~~~~-------------------------------------------------------]
D---------4~~~~~~~~~-------------------------------------------------------]
A---------2~~~~~~~~~-------------------------------------------------------]
E---------2~~~~~~~~~-------------------------------------------------------]

The whole song should kinda ring... idk... and suggestions my e-mail is 
t_johnson12@hotmail.com... p.s. from (a) to (b) play twice...
Tap to rate this tab
# A B C D E F G H I J K L M N O P Q R S T U V W X Y Z