Song name
# A B C D E F G H I J K L M N O P Q R S T U V W X Y Z

Misc Unsigned Bands - Indikator - Profecy Within tab

Indikator - Profecy within Intro.


e---------------------------------------------------------|
B-/5-5-/7-7-7-8-8---8-10-7----/5-5-/7-7-7-8-8---8-10-7----|
G-----------------9--------9------------------9--------9--| x4
D---------------------------------------------------------|
A---------------------------------------------------------|
E---------------------------------------------------------|


kitara e dyt hin mas repeticionit t'par.

e--7-7-7--7---------8-8-10--7---------7-7-8-7---------7-----------------------------|
B-----------10-8-10-----------10-8-7----------10-8-10---10-8-7--10-8-7---8-10-7-----|
G----------------------------------------------------------------------9--------9---|
D-----------------------------------------------------------------------------------|
A-----------------------------------------------------------------------------------|
E-----------------------------------------------------------------------------------|

e--7----------7---7-10-7-10-12--|
B-------------------------------|
G-----9----10-------------------|
D-------------------------------|
A-------------------------------|
E-------------------------------|

iLiR.
Tap to rate this tab
# A B C D E F G H I J K L M N O P Q R S T U V W X Y Z